#1
Anybody good enough to tab this: http://youtube.com/watch?v=VuwXkWCVztg

It's the Hell Song Solo.

S

Well actually I'm looking for the ending of the solo where it goes down like a scale sort of, then after it plays the power chords (6,4,6).

I figured out everything by ear.
Last edited by Strutter91 at May 10, 2008,
#2
Hey another sum 41 fan nice
this is the first sum song i learned
its easy but to match the live recording, tune ur guitar 1/2 step down
ok so here it is

|---------------------------|
|9---------9-----9----9--|
|11b13-b13-b13-b13-|
|---------------------------|
|---------------------------|
|---------------------------|
|---------------------------| x2

|---------------------------------------------------------------------------------------------------
|----------------------------------------------4-5-4------4---------------------------------------
|-11-11-11-9-8-6--8h9-6h8-4h6--4-6---------4-6-----3trill4---4trill6---6trill8--8trill9
|---------------------------------------------------------------------------------------------------
|---------------------------------------------------------------------------------------------------
|----------------------------------------------------------------------------------------------------

|----------------------------------------------------------------------------------------
|-9----------11---------15---12--------12----14---------14-----------------------
|-11b13----13b15--b13---14b16--b16----16b18--b18-b16---b16-16-14-
|---------------------------------------------------------------------------------------
|----------------------------------------------------------------------------------------
|---------------------------------------------------------------------------------------

|------------------------------------------------------------------
|---------19-----------------------------19---------------------
|-18b20----rb18--16-16----18b20-----rb18-16-<16>--
|-----------------------------------------------------------------
|----------------------------------------------------------------
|---------------------------------------------------------------

|--------------------------------------------------------------------------------
|-------------------------------------------------------------------------------
|-15-15-16-15---11-11-13-11----------------------------------------
|-------------------------------------11-13-11-9-11-9-------------------
|------------------------------------------------------------9/14b16rb14
|----------------------------------------------------------------------------

b=bend
rb=release bend
<>=pick harmonic
trill=fast hammer on/hammer off