#1
|
|------------------12------------------12-|
|-----------13------------------13--------|
|----12------------------12---------------|
|-14------------------14------------------|
|-----------------------------------------|
|-----------------------------------------|

During that chorus riff, should I sweep pick the notes, or just down stroke on 'em?
#2
wouldnt that be the same thing?

not getting what you mean...

just play it a way where you can play it cleanly and accurately without the notes ringing out
Originally posted by primusfan
When you crank up the gain to 10 and switch to the lead channel, it actually sounds like you are unjustifiably bombing an innocent foreign land.


╠═══════╬═══════╣
τλε τρπ βπστλεπλσσδ
╠═══════╬═══════╣
#3
Quote by CrzyGuitarist93
|
|------------------12------------------12-|
|-----------13------------------13--------|
|----12------------------12---------------|
|-14------------------14------------------|
|-----------------------------------------|
|-----------------------------------------|

During that chorus riff, should I sweep pick the notes, or just down stroke on 'em?



...Do you know what sweep picking is?
Funny words.
#5
When I used to play this stuff, I'd alternate pick it. It's all down to preference.