#1
yeah
failure has a really really awesome song called "stuck on you"
but no one has tabbed it out
so could someone do that please?
#2
Drop d tuning DADGBe

these are the chords throughout the song:

e|---------------------------------------------------------------------------
B|---------------------------------------------------------------------------
G|-------------------------------------- 55555555------------------------
D|--11111111-----44444444------55555555----3333----6666---
A|--11111111-----44444444------33333333----3333----6666----
D|--11111111-----44444444-----------------------3333----6666---

and the riff:
e|---------------------------------------------------------------------------9-------7------------
B|---6-------6-------9----6-------6------9----6--------6--------9---------6-------6-----6---
G|-----8--------8------------8-------8------------8--------8------------------8--------8-----8-
D|--------8-------8----8--------8------8----8-------8---------8----8--------------------------
A|-------------------------------------------------------------------------------------------------
E|-------------------------------------------------------------------------------------------------

e|---------------------------------------------------------------------------9-------7-----------------
B|---6-------6-------9----6-------6------9----6--------6--------9---------6-------6-----6--------
G|-----8--------8------------8-------8------------8--------8------------------8--------8-----8----8
D|--------8-------8----8--------8------8----8-------8---------8----8-------------------------------
A|-------------------------------------------------------------------------------------------------------
E|-------------------------------------------------------------------------------------------------------