#1
can somebody tab out Guns and Roses by Lenny Kravitz featuring Jay Z ...its a sweet song but i cant find the tabs anywhere online
#2
the song is divided in 3 parts, intro, (1) and (2), and right now I'm too lazy to figure how many times each has to be played....
Intro:
e|----------------------------------------------------------------------------------|
B|----------------------------------------------------------------------------------|
G|-----2------2------------2-------------2-------2-------------2----------------|
D|--------2-------2----3---------2----------2--------2----3---------2----------| (2)
A|---------------------------------0------------------------------------0----------|
E|---------------------------------------------------------------------------3b----|


(I)

e|-------------------------------------------------------------------------------------------------------|
B|--------------------------------------------------------------------------------------------------------|
G|--------------------------------------------------------------------------------------------------------|
D|-------------------------------------7\------------------------------------------------7\--------------|
A|-------------3---5---2---3----0-----------3----5----2-------3----5----2---3--0--------3---5---2-
E|---2--------------------------------------------------------2-------------------------------------------|


e|-------------------------------------------------------------------
B|-------------------------------------------------------------------
G|-------------------------------------------------------------------
D|-------------------------------------7\---------------------------
A|-------------3---5---2---3----0-----------3----5----2---------
E|---2-------------------------------------------------------------

e|--------------------------------------------------------------------------
B|---------------------------------------------------------------------------
G|---------------------------------------------------------------------------
D|-------------------------------------7\----------------------------------7\
A|-------------3---5---2---3----0-----------3----5----2----3-----0-----
E|---2-----------------------------------------------------------------------


(2)

e|-----------5---3----5-------------5---------------------5---3---5-------------5-------------|
B|-------------------------5-----6-------5------------------------------5-----6------5---------|
G|--------------------------------------------5----------------------------------------------------|
D|-----2--------------------------------------------2---------------------------------------------|
A|-----0--------------------------------------------0----------------------------------------000-|
E|--------------------------------------------------------------------------------------------------|


e|-----------5---3----5-------------5---------------------0----------------------------------|
B|-------------------------5-----6-------5--------------------1-------------------------------|
G|------------------------------------------------------------------2-----4--------------------|
D|-----2--------------------------------------------2--------------------------2--------------|
A|-----0--------------------------------------000-0---------------------------0--------------|
E|-------------------------------------------------------------------------------------3b------|
Last edited by crmrz at May 13, 2008,