#1
The tab for A Tout Le Monde (Set Me Free) by Megadeth is?
the tab in u.a album doesnt show that tabbed version. just the first 3 seconds of martys and thats it. i want glen drovers solo. if anyone could point it out or giv eme the link or tab it the ni would appreciate that.
#3
I've got them.

I don't think I'm supposed to link to it, but I can attach it to my post, what format do you want? Guitar Pro? Powertab? Text?
#5
Quote by buckethead_jr
I've got them.

I don't think I'm supposed to link to it, but I can attach it to my post, what format do you want? Guitar Pro? Powertab? Text?



uhmm i'd like the normal tab version of it..so i gues it'd be text version i dont have guitar pro or pwer tab
#6
Quote by GHOST_OF_WAR
yeah but the ones ive seen all have the original solo..not glen drovers..



and everyone i'd look into for the solo i'd find martys.
#7
Solo (Drover)
e|------------17----16~----17----17b19~---16b17r16b17--(17)r16----16-|
B|-14d12r14*-----14-----------14-------------------------------17----|
G|-------------------------------------------------------------------|
D|-------------------------------------------------------------------|
A|-------------------------------------------------------------------|
E|-------------------------------------------------------------------|

e|----------------------------|
B|-17\15--/19--\14-14~~-------|
G|-----------------------(6)/-|
D|----------------------------|
A|----------------------------|
E|----------------------------|

e|--------------------------------------|
B|----17-------15-------14------12------|
G|-14----14\13----13\11----11\9----9-7~-|
D|--------------------------------------|
A|--------------------------------------|
E|--------------------------------------|

e|----------------------------|
B|-7h10---7-------------------|
G|------9---9/11--------------|
D|---------------9/11~----9\7-|
A|----------------------------|
E|----------------------------|

e|--------------------------------------------|
B|--------------------------------------------|
G|-------------------------------------4/6-4~-|
D|-9/11--------------------------4--4---------|
A|------9--7/9~----7-7--4--5-5-5--------------|
E|--------------------------------------------|

e|----------------------------------|
B|----------------------------------|
G|-2-4-5p4p2-4~---2-4-5p4p2---4-2~--|
D|-----------a--------------4-------|
A|----------------------------------|
E|----------------------------------|
   * *            * *
e|--------------------------|
B|-/10--10----10~-10~----xx-|
G|-/11-----11-11~-11~----xx-|
D|--------------------------|
A|--------------------------|
E|--------------------------|

e|--------------{12}---------------------------|
B|-10b12r10b12-------(12)r10-9~--(9)h10p9------|
G|----------------------------------------11-9-|
D|---------------------------------------------|
A|---------------------------------------------|
E|---------------------------------------------|
                                           * *
e|-------------------|
B|-----------7/9-7~--|
G|-7~--------7/9-7~--|
D|-------9-7---------|
A|-------------------|
E|-------------------|
         * *
Main guitar:
e|-------------------------------------------------------12-14-16-19~-|
B|-------------------------------------12-14-16-12-14-16--------------|
G|-------------------11-13-14-11-13-14--------------------------------|
D|-13h14p13-11-13-14--------------------------------------------------|
A|--------------------------------------------------------------------|
E|--------------------------------------------------------------------|

Harmony guitar:
e|----------------------------------------------------------------16~-|
B|-------------------------------------------------------14-16-17-----|
G|-------------------------------------13-14-16-13-14-16--------------|
D|-[silent]-------------------13-14-16--------------------------------|
A|--------------------------------------------------------------------|
E|--------------------------------------------------------------------|

10^        = bend a quarter step.
10b11      = bend a half step.
10b12      = bend a full step.
10b12r10   = bend and release.
[10]12     = pre-bend.
[10]12r10  = pre-bend and release.
{14}       = pick the 14th fret while holding the most 
             previous bend.
<17>       = touch the string above the 17th fret while 
             previous note(s) is(are) still ringing.

10b13*     = tremolo bar bend, from the 10th fret to the 13th fret.
7d4*       = tremolo bar dive, from the 7th fret to the 4th fret. 
12~*       = tremolo bar vibrato.

x   =  mute with fret-hand
*   =  palm mute
X\\ =  pick slide
h   =  hammer-on
p   =  pull-off
~   =  vibrato
t   =  finger tap
/   =  slide up
\   =  slide down
h.  =  natural harmonics
a   =  artificial harmonics
(9) =  ghost note
tm  =  trem picking
tr  =  trill

That's just the solo.