#3
here's the tab:
there are some minor changes I didn't write, like the moment he starts doing a little of percussion with his right hand, but I think it's clear enough...
(I)
e|--------------------------------------------------------------------------------------------|
B|--------------------------------------------------------------------------------------------|
G|-------2--2--2---2----0---------------------------2---2--2---0-------------------------|
D|--0---4-----------2--------4----0---2--------0---4-----------4---4----2---0----------|
A|-------2-----------0---------------------------------2----------0-------------------------|
E|-----------------------------------3--------------------------------------------3----------|

e|-----------------------------------------------------------------------------------------------|
B|-----------------------------------------------------------------------------------------------|
G|-------2--2--2---2----0---------------------------------------------------------------------|
D|--0---4-----------2--------4----0---2---------0---2----4---2---0---2----4---0--0-------|
A|-------2-----------0---------------------------------------2------------0--------------------|
E|-----------------------------------3---------------------------------------------------3------|


repeat (I)


(2)
e|----------5----5-----5---3---2--------0----------------2-------------------2-------------|
B|----3----------3-------------------3------------3---5-------5----3----5--------3----3---|
G|------------------------------------------------------------------------------------------0--| (2)
D|----------------------------------------------------------------------------------------------|
A|----------2-----------0----------------------------------2--------------0-------------------|
E|------------------------------------3---------------------------------------------3----------|


e|------------------------------------2--------0--------3---------------------|
B|-----2h3---0------------0--------2-h3----0--------3---------------------|
G|-----2--------------------0--------2-----------------0----------------------|
D|-----4------7------------0-----------------7--------------------------------|
A|-----2------4----------------------2-------4---------------------------------|
E|--------------------------3---------------------------3-----------------------|

repeat (I) (2)

e|---------------------------------------------------------------------------|
B|-------3------2----3---------3-------2-------0-------------------------|
G|-------4------2----4---------4-------2-------0-------------------------|
D|-------4------2----5---------4-------2-------0--------------------------| (8)
A|-------2------4---------------2-------4----------------------------------|
E|--------------------3---------------------------3-------------------------|

he uses many small variations here, like this one...

e|-----------------------------------------------------
B|-------2h3----3----------2---------0--------------
G|-------2h4----4----------2---------0---------------
D|-------2h4----4----------2---------0--------------
A|-------2------------2-----4h5----------------------
E|-------------------------------------3----------------

repeat (2).....