#1
im a pretty new guitarist and im pretty new to hammer-ons and pull-offs and are still trying to get it down

any song suggestions that will help me with them, thanks
Quote by Dardarian
Go to your doktor. UG can't give proper medical advice.


Quote by DanRev
Because it could be a serious answer. What if someone was to make a thread "A song to tell my girlfriend that I caught a nasty STD off her best friend?" We'd all be screwed then.
#2
thunderstruck -ac/dc
demonology and heartache -atreyu
to the end (solo only) - mcr
Quote by nodice182
Denny Crane.

Quote by dmiwshicldply
touche vman, touche

mate. feed. kill. repeat.
#4
that could work...im better at hammering-on then pulling-off in general at this point
Quote by Dardarian
Go to your doktor. UG can't give proper medical advice.


Quote by DanRev
Because it could be a serious answer. What if someone was to make a thread "A song to tell my girlfriend that I caught a nasty STD off her best friend?" We'd all be screwed then.
#5
the black sabbath paranoid intro should be simple enough to get you going on hammer-ons, looks something like this.
------------------------------------------------------------------------------
------------------------------------------------------------------------------
------------------------------------------------------------------------------
------------------------12h14-----12----------------------------12h14-----12--
-12h14-12h14-12h14-12h14-----12h14--14---12h14-12h14-12h14-12h14-----12h14--14
-12----12----12--------------------------12----12----12-----------------------

------------------------------------------------------------------------------
------------------------------------------------------------------------------
------------------------------------------------------------------------------
------------------------12h14-----12----------------------------12h14-----12--
-12h14-12h14-12h14-12h14-----12h14--14---12h14-12h14-12h14-12h14-----12h14--14
-12----12----12--------------------------12----12----12-----------------------
#8
thunderstruck

the trooper - iron maiden
Quote by juan Andrés

Sorry awful Anglish.
#9
oh yea and over the hills and far away by led zeppelin
that how i learned them and thats still my favorite song to play a couple years later
#10
Paranoid by Black Sabbath and The Trooper by Iron Maiden are pretty good for hammers ons and pull offs
#11
mite be a little difficult but (i song that i loathe) taylor by Jack Johnson.
If it wasn't for bad luck, I wouldn't have no luck at all