#1
By Between the Buried and me. Been looking everywhere but can't find it!

there are guitar pro tabs out there but I dont have guitar pro or any of that
Last edited by Banana Man at May 14, 2008,
#2
Viridian


Between the Buried and Me
P. Waggoner Gtr.


W H W W
C#||-------------------|-----------|-------------------|-------------------|
G#||-------------------|-----------|-------------------|-------------------|
E ||--6----------------|--L--------|--L----------------|--L----------------|
B ||--6----------------|--L--------|--L----------------|--L----------------|
F#||--4----------------|--L--------|--L----------------|--L----------------|
C#||-------------------|-----------|-------------------|-------------------|


W W W W
-------------------|-------------------|-------------------|-------------------|
-------------------|-------------------|-------------------|-------------------|
-------------------|-------------------|-------------------|-------------------|
-------------------|-------------------|-------------------|-------------------|
-------------------|-------------------|-------------------|-------------------|
-------------------|-------------------|-------------------|-------------------|


W W H. H.
-------------------|-------------------|---------------|---------------|
-------------------|-------------------|---------------|---------------|
-------------------|-------------------|---------------|---------------|
-------------------|-------------------|---------------|---------------|
-------------------|-------------------|---------------|---------------|
-------------------|-------------------|---------------|---------------|


H. W Q W H.
---------------|------------------------|-------------------|---------------|
---------------|------------------------|-------------------|---------------|
---------------|------------------------|-------------------|---------------|
---------------|------------------------|-------------------|---------------|
---------------|------------------------|-------------------|---------------|
---------------|------------------------|-------------------|---------------|


H. H. H. Q.
---------------|---------------|----------------------|
---------------|---------------|----------------------|
---------------|---------------|----------------------|
---------------|---------------|----------------------|
---------------|---------------|----------------------|
---------------|---------------|----------------------|


E E E E E E E E E E E E E E E E
-------------------7--------|-------------------7--------|
----------------------8-----|----------------------8-----|
---------7---------------7--|---------7---------------7--|
-----10-----10--------------|-----10-----10--------------|
--7-------------7-----------|--7-------------7-----------|
----------------------------|----------------------------|


E E E E E E E E E E E E E E E E
-------------------7--------|-------------------7--------|
----------------------8-----|----------------------8-----|
---------7---------------7--|---------7---------------7--|
-----10-----10--------------|-----10-----10--------------|
--7-------------7-----------|--7-------------7-----------|
----------------------------|----------------------------|


E E E E E E E E E E E E E E E E
-------------------7--------|-------------------7--------|
----------------------7-----|----------------------7-----|
---------7---------------7--|---------7---------------7--|
------7-----7---------------|------7-----7---------------|
--10-----------10-----------|--10-----------10-----------|
----------------------------|----------------------------|


E E E E E E E E E E E E E E E E
-------------------7--------|-------------------7--------|
----------------------7-----|----------------------7-----|
---------7---------------7--|---------7---------------7--|
------7-----7---------------|------7-----7---------------|
--10-----------10-----------|--10-----------10-----------|
----------------------------|----------------------------|


E E E E E E E E E E E E E E E E
-------------------7--------|-------------------7--------|
----------------------8-----|----------------------8-----|
---------7---------------7--|---------7---------------7--|
-----10-----10--------------|-----10-----10--------------|
--7-------------7-----------|--7-------------7-----------|
----------------------------|----------------------------|


E E E E E E E E E E E E E E E E
-------------------7--------|-------------------7--------|
----------------------8-----|----------------------8-----|
---------7---------------7--|---------7---------------7--|
-----10-----10--------------|-----10-----10--------------|
--7-------------7-----------|--7-------------7-----------|
----------------------------|----------------------------|


E E E E E E E E E E E E E E E E
-------------------7--------|-------------------7--------|
----------------------7-----|----------------------7-----|
---------7---------------7--|---------7---------------7--|
------7-----7---------------|------7-----7---------------|
--10-----------10-----------|--10-----------10-----------|
----------------------------|----------------------------|


E E E E E E E E E E E E E E E E
-------------------7--------|-------------------7--------|
----------------------7-----|----------------------7-----|
---------7---------------7--|---------7---------------7--|
------7-----7---------------|------7-----7---------------|
--10-----------10-----------|--10-----------10-----------|
----------------------------|----------------------------|


E E E E E E E E E E E E E E E E
-------------------9---------|-------------------9---------|
----------------------10-----|----------------------10-----|
---------9----------------9--|---------9----------------9--|
-----12-----12---------------|-----12-----12---------------|
--9-------------9------------|--9-------------9------------|
-----------------------------|-----------------------------|


E E E E E E E E E E E E E E E E
-------------------9---------|-------------------9---------|
----------------------10-----|----------------------10-----|
---------9----------------9--|---------9----------------9--|
-----12-----12---------------|-----12-----12---------------|
--9-------------9------------|--9-------------9------------|
-----------------------------|-----------------------------|


E E E E E E E E E E E E E E E E
-------------------9--------|-------------------9--------|
----------------------9-----|----------------------9-----|
---------9---------------9--|---------9---------------9--|
------9-----9---------------|------9-----9---------------|
--12-----------12-----------|--12-----------12-----------|
----------------------------|----------------------------|


E E E E E E E E E E E E E E E E
-------------------9--------|-------------------9--------|
----------------------9-----|----------------------9-----|
---------9---------------9--|---------9---------------9--|
------9-----9---------------|------9-----9---------------|
--12-----------12-----------|--12-----------12-----------|
----------------------------|----------------------------|


E E E E E E E E E E E E E E E E
-------------------9---------|-------------------9---------|
----------------------10-----|----------------------10-----|
---------9----------------9--|---------9----------------9--|
-----12-----12---------------|-----12-----12---------------|
--9-------------9------------|--9-------------9------------|
-----------------------------|-----------------------------|
#3
E E E E E E E E E E E E E E E E
-------------------9---------|-------------------9---------|
----------------------10-----|----------------------10-----|
---------9----------------9--|---------9----------------9--|
-----12-----12---------------|-----12-----12---------------|
--9-------------9------------|--9-------------9------------|
-----------------------------|-----------------------------|


E E E E E E E E E E E E E E E E
-------------------9--------|-------------------9--------|
----------------------9-----|----------------------9-----|
---------9---------------9--|---------9---------------9--|
------9-----9---------------|------9-----9---------------|
--12-----------12-----------|--12-----------12-----------|
----------------------------|----------------------------|


E E E E E E E E E E E E E E E E
-------------------9--------|-------------------9--------|
----------------------9-----|----------------------9-----|
---------9---------------9--|---------9---------------9--|
------9-----9---------------|------9-----9---------------|
--12-----------12-----------|--12-----------12-----------|
----------------------------|----------------------------|


E E E E E E E E E E E E E E E E
-------------------9---------|-------------------9---------|
----------------------12-----|----------------------12-----|
---------9----------------9--|---------9----------------9--|
-----13-----13---------------|-----13-----13---------------|
--9-------------9------------|--9-------------9------------|
-----------------------------|-----------------------------|


E E E E E E E E E E E E E E E E
-------------------9---------|-------------------9---------|
----------------------12-----|----------------------12-----|
---------9----------------9--|---------9----------------9--|
-----13-----13---------------|-----13-----13---------------|
--9-------------9------------|--9-------------9------------|
-----------------------------|-----------------------------|


E E E E E E E E E E E E E E E E
------------------7---------|------------------7---------|
---------------------9------|---------------------9------|
--------11--------------11--|--------11--------------11--|
-----9------9---------------|-----9------9---------------|
--7------------7------------|--7------------7------------|
----------------------------|----------------------------|


E E E E E E E E E E E E E E E E
------------------7---------|------------------7---------|
---------------------9------|---------------------9------|
--------11--------------11--|--------11--------------11--|
-----9------9---------------|-----9------9---------------|
--7------------7------------|--7------------7------------|
----------------------------|----------------------------|


E E E E E E E E E E E E E E E E
-----------------6--------|-----------------6--------|
--------------------7-----|--------------------7-----|
--------6--------------6--|--------6--------------9--|
-----9-----9--------------|-----9-----9--------------|
--6-----------6-----------|--6-----------6-----------|
--------------------------|--------------------------|


E E E E E E E E E E E E E E E E
-----------------6--------|-----------------6--------|
--------------------7-----|--------------------7-----|
--------6--------------9--|--------6--------------9--|
-----9-----9--------------|-----9-----9--------------|
--6-----------6-----------|--6-----------6-----------|
--------------------------|--------------------------|


E E E E E E E E E E E E E E E E
-----------------7--------|-----------------7--------|
--------------------7-----|--------------------7-----|
--------8--------------8--|--------8--------------8--|
-----9-----9--------------|-----9-----9--------------|
--7-----------7-----------|--7-----------7-----------|
--------------------------|--------------------------|


E E E E E E E E E E E E E E E E
-----------------7---------|-----------------7---------|
--------------------10-----|--------------------10-----|
--------8---------------8--|--------8---------------8--|
-----7-----7---------------|-----7-----7---------------|
--9-----------9------------|--9-----------9------------|
---------------------------|---------------------------|


E E E E E E E E E E E E E E
------------------7---------|------------------7--|
---------------------8------|---------------------|
--------11--------------11--|--------11-----------|
-----9------9---------------|-----9------9--------|
--7------------7------------|--7------------7-----|
----------------------------|---------------------|


E E E E E E E E E E E E E E E E
-----------------------7------|------------------7---------|
-------------------10-----10--|---------------------8------|
---------9--------------------|--------11--------------11--|
-----10-----10----------------|-----9------9---------------|
--7-------------7-------------|--7------------7------------|
------------------------------|----------------------------|


E E E E E E E E E E E E E E
------------------7---------|----------------7------|
----------------------------|------------10-----10--|
--------11------------------|--9--------------------|
-----9------9-----------10--|-----10----------------|
--7------------7-----7------|---------7-------------|
----------------------------|-----------------------|


E E E E E E E E E E E E E E E E
------------------7---------|------------------7---------|
---------------------8------|----------------------------|
--------11--------------11--|--------11------------------|
-----9------9---------------|-----9------9-----------10--|
--7------------7------------|--7------------7-----7------|
----------------------------|----------------------------|


E E E E E E E E E E E E E E
----------------7------|------------------7---------|
------------10-----10--|---------------------8------|
--9--------------------|--------11--------------11--|
-----10----------------|-----9------9---------------|
---------7-------------|--7------------7------------|
-----------------------|----------------------------|


E E E E E E E E E E E E E E
------------------7---------|----------------7------|
----------------------------|------------10-----10--|
--------11------------------|--9--------------------|
-----9------9-----------10--|-----10----------------|
--7------------7-----7------|---------7-------------|
----------------------------|-----------------------|


E E E E E E E E E E E E E E E E
------------------7---------|------------------7---------|
---------------------8------|----------------------------|
--------11--------------11--|--------11------------------|
-----9------9---------------|-----9------9-----------10--|
--7------------7------------|--7------------7-----7------|
----------------------------|----------------------------|


E E E E E E E E E E E E E E
----------------7------|------------------7---------|
------------10-----10--|---------------------8------|
--9--------------------|--------11--------------11--|
-----10----------------|-----9------9---------------|
---------7-------------|--7------------7------------|
-----------------------|----------------------------|


E E E E E E E E E E E E E E
------------------7---------|----------------7------|
----------------------------|------------10-----10--|
--------11------------------|--9--------------------|
-----9------9-----------10--|-----10----------------|
--7------------7-----7------|---------7-------------|
----------------------------|-----------------------|


E E E E E E E E E E E E E E E E
------------------7---------|------------------7---------|
---------------------8------|----------------------------|
--------11--------------11--|--------11------------------|
-----9------9---------------|-----9------9-----------10--|
--7------------7------------|--7------------7-----7------|
----------------------------|----------------------------|


E E E E E E E E E E E E E E
----------------7------|------------------7---------|
------------10-----10--|---------------------8------|
--9--------------------|--------11--------------11--|
-----10----------------|-----9------9---------------|
---------7-------------|--7------------7------------|
-----------------------|----------------------------|


E E E E E E E E E E E E E E
------------------7---------|----------------7------||
----------------------------|------------10-----10--||
--------11------------------|--9--------------------||
-----9------9-----------10--|-----10----------------||
--7------------7-----7------|---------7-------------||
----------------------------|-----------------------||