#1
One of my favorite songs with them calls . The Londons Quireboys - Hey You . I've looked in the (almost) whole internet and i can't find any tab. Do you maybe know someone ho can listen to it and post the tab in ultimate-guitar. The kinks played a live version of you really got me . The Kinks - You Really Got Me (Live) . Try (Live Tokyo) . Can't find tab to this either...
#2
If you want the chords I can give those to you.... I don't feel like tabbing out the entire song note for note though...... Let me know.... It would be like this....

C F C F
Hey you, what can I do?
Bb F
Can't you stand by your man
C F
Like the other girl's can?
#3
by the way, the chords don't line up where they should on this post so if you want them I would either have to try and email them to you or post the song on here with the chords...again, let me know
#4
A G D
e|---5---5-------3--3-----2--------------------------
B|---5---5-------3--3-----3--------------------------- |
G|---6---6-------0--0-----2----------7---9p7------- 5x
D|---7---7-------0--0-----0----7/9-------------9\--
A|---7---7-------2--2----------------------------------
E|---5---5-------3--3----------------------------------

E
e|---------------------------------
B|-----------------------------9--- |
G|------------7---9p7-------9---
D|------7/9-------------9\---9---
A|-----------------------------7--
E|---------------------------------


Chorus:
C F C F Bb F C F
e|---8------------8-------------6-------------8-----------------|
B|---8-----10----8-----10-----6----10-----8-----10----------|
G|---9-----10----9-----10-----7----10-----9------10---------|
D|---10---10----10----10-----8----10-----10----10---------|
A|---10----8-----10----8------8-----8------10-----8---------|
E|---8------------8-------------6-------------8-----------------|


C F C F Bb F C F G
e|---8------------8-------------6-------------8----------------3------------|
B|---8-----10----8-----10-----6----10-----8-----10--------3------------|
G|---9-----10----9-----10-----7----10-----9------10-------0-----------|
D|---10---10----10----10-----8----10-----10----10-------2-----------|
A|---10----8-----10----8------8-----8------10-----8--------3----------|
E|---8------------8-------------6-------------8-----------------|
Last edited by crmrz at May 16, 2008,