#3
tuning: Eb Ab Db Gb Bb eb

for the intro try to do the pattern I'm showing you below and do the same with the verse (I don't have time to write the same thing over and over)

pattern:
eb|---------------------------------------------------------------------------|
Bb|----7----7-----7-----7-----7-------7------7-------7-------------------|
Gb|---------------------------------------------------------------------------|
Db|---------------------------------------------------------------------------|
Ab|-5----5-----5----5----5------5-------5-------5------------------------|
Eb|---------------------------------------------------------------------------|

verse: D Em Bm A
eb|---------------------------------------------------------------------------|
Bb|--------7----------8----------3-------2----------------------------------|
Gb|---------------------------------------------------------------------------|
Db|---------------------------------------------------------------------------|
Ab|----5---------7----------2--------0--------------------------------------|
Eb|---------------------------------------------------------------------------|

D Em Bm A G A Bm A G A
eb|--------------------------------------------------------------------------------------------------|
Bb|--------7----------8----------3-------2------------------2----------3-------2------------------2---|
Gb|--------------------------------------------------2--------------------------------------2-----------|
Db|--------------------------------------------------------------------------------------------------------|
Ab|----5---------7----------2--------0------------------0--------2---------0------------------0--------|
Eb|----------------------------------------------3--------------------------------------3-----------------|

bridge: G A Em Bm G A Em Bm G A