#1
hey, im trying to figure out the solo to little bones by the tragically hip since theres no tab for it, it just says its F# blues scale.... is there any charts or anything about this scale on the web?
#3
F# is on the 2nd fret as well as 14th. It sounds like Rob is using the 14th and useing the lower strings. I find when im playing the hip i tend to over use the scales and notes, keep it simple. He is using F#minor pentatonic scale, so itll be like
e 14-17
b 14-17
g 14-16
d 14-16
a 14-16
e 14 -17
Last edited by Phishead42 at May 16, 2008,
#4
The blues scale in f# that i know goes

e---------------------------25----------------------------------
b-----------------------2-5-------------------------------------
g----------------2-4-5-------------------------------------------
d------------2-4-------------------------------------------------
a-----2-3-4--------------------------------------------------------
e-2-5-----------------------------------------------------------

or just go a octive up to the 14th fret and just do the same pattern
#5
try it here..not tabs...just 2 box patterns together
It's as if the nut posistion moved to 9th fret. (from key of C or Amin)

X= option note or the b5

----------7----X----9----------------12--
----------7-------------10-----------12--
------6-------------9-----------11------
----------7---------9----X-----11------
----------7--------(R)---------------12-
----------7---X-----9----------------12-

here's the other shape to connect it to the others

---------12------------14-------------
---------12------X-----14------------
--11-------------------14------------
--11-------------------14-----------
---------12------------14--X--------
---------12------------(R)----------
Last edited by Ordinary at May 16, 2008,