#1
I'm having trouble printing tabs,when I print them using Notepad,they all come out cluttered like this:

----------------------|--------------------------|
----------------------|--------------------------|
----------------------|--------------------------|
----------------------|------------------5-------|
------7-5-7-5---8-5---|------7-5-7-5---8---7-----|
--0-5---------6-----6-|--0-5---------6-------8-6-|

Anybody here can teach me how do you print tabs out nice and not cluttered?I used to be able to print tabs out nicely,but recently they come out really cluttered and its very hard to read.Thanks.
MY GEAR
Ibanez SA160QM
Laney HCM10
Squier Bullet Strat
MXR Carbon Copy
Zoom Tri Metal
Modtone Flanger(mini)
EHX LPB-1
Korg Pitchblack
Timtone acoustic
#3
Quote by l2p_Guitar
you're not allowed to print tabs.

sorry.


yes you are i print alot of tabs
#4
Quote by FAYT2
yes you are i print alot of tabs

*Reported* No you aren't. I'm afraid I will have to inform higher authorities for your crimes.
#5
man, this thread became funnier than I thought it was going to be
Quote by imthehitcher
you truly are a prince of men


Quote by isuckhardcore
I get naked FOR my dog.
#6
If you use a blank template like:
----------------------|--------------------------|
----------------------|--------------------------|
----------------------|--------------------------|
----------------------|--------------------------|
----------------------|--------------------------|
----------------------|--------------------------|

then if you add something like

----------------------|--------------------------|
----------------------|--------------------------|
------------------4----|--------------------------|
------2--33--1------------|--------------------------|
----------------------|--------------------------|
----------------------|--------------------------|

Then of course it'll come out cluttered unless you delete one of the "-" for every number you add..

If you can understand that.. and it helps then great... Good luck mate.
#7
If you're using notepad, change your font to Courier New, regular, size 9. If they still clutter or skip lines, change your page setup to landscape.
For a wounded man shall say to his assailant, "if I live I will kill you."
"If I die, you are forgiven."
Such is the rule of honour.
#9
Quote by lceman13
*Reported* No you aren't. I'm afraid I will have to inform higher authorities for your crimes.

You sure?I've never heard or read about that.
MY GEAR
Ibanez SA160QM
Laney HCM10
Squier Bullet Strat
MXR Carbon Copy
Zoom Tri Metal
Modtone Flanger(mini)
EHX LPB-1
Korg Pitchblack
Timtone acoustic
#13
Go to the bottom of the page, click "print this tab" then go: File>Print. It'll print perfectly.
#14
Since when can you not print tabs? i call BS
Quote by Dillona
NME: OMFG DEY HAZ TIGHT JEENZ N MESSY HAIRZ!

LETS COVER THEM IN OUR MAGAZINE FOR THE NEXT THREE MONTHS! .



Metallica 08.07.07
25.03.09
#16
Quote by leprechaun_sean
Since when can you not print tabs? i call BS


You call correctly. He was trying to be funny. And he was succeeding.
Quote by imthehitcher
you truly are a prince of men


Quote by isuckhardcore
I get naked FOR my dog.