#1
Has anyone given this one a shot yet? There's a few parts I can't quite figure out yet, mostly the "solo" and the ending of the bridge. Here's what I have so far.

D C* G
You look pretty in your fancy dress
D C* G
But I detect unhappiness
D C* G
You never speak so I have to guess
???????
You're not free

Yeah, maybe when you're old enough
You'll realize that you're not so tough
And some days the seas get rough
You'll see

You're too young to have it figured out
You think you know what you're talkin about
You think it all will work itself out
But we'll see

F C5
When I was young I thought I knew
F C5
You probably think you know too
D C* G
Do you?
D C* G
Well, do you?

I was naive just like you, I thought
I knew exactly what I wanted to do
Well, what you gonna do?
What a fool

And how've you gotten by so far
Without a head and no visible scar?
No one knowin' who you really are
They can't see

instrumental break, same riff at the end of the bridge. (4 times)


(not sure what this chord progression is!?!?!)
What you gonna do? (What you gonna do?)
What you gonna do now?
What you gonna do? (What you gonna do?)
What you gonna do now?
What you gonna do? (What you gonna do?)
What you gonna do now?
What you gonna do? (What you gonna do?)
What you gonna do now?
What you gonna do now?

D C* G

F C5
The only way you'll ever learn a thing
F C5 D C* G
Is to admit that you know absolutely nothing
D C* G
Oh, nothing

Think about this carefully
You might not get another chance to speak freely
Oh, freely

D C* G
Maybe when you're old enough
Maybe when you're old enough
Maybe when you're old enough
You're not free
(Yeah) You're not free

C*: x32033
C5: x355xx
Last edited by crownroyal at May 18, 2008,
#2
I got stuck there too

Also, i think the verse is just D-C over and over?


so..


D C
You look pretty in your fancy dress
D C
But I detect unhappiness
D C
You never speak so I have to guess
F G D C D C etc
You're not free
#3
According to what I see on the song played live, the verse seems to go like this:
D Cadd9 G
e|---2----3-----3-----------|
B|---3----3-----3-----------|
G|---2----0-----0-----------| (3)
D|---0----2-----0-----------|
A|---------3-----2-----------|
E|----------------3-----------|

e|---1------0------------------------------------------------------------------|
B|---1------1---------3----3---3----------3-----3-----3----3---------------|
G|---2------0---------0----0---0----------0-----0-----0----0---------------|
D|---3------2---------x----x---x-----------x-----x-----x----0---------------|
A|---3------3---------3----2---3----------2-----3-----2----x---------------|
E|---1------0-------------------------------------------------3----------------|

And then: F C F C D G D G (2)

the" what you gonna do" progression:

D Cadd9 (G F) (3) D Cadd9 G
Last edited by crmrz at May 17, 2008,
#4
I can't get that last part that you listed above to sound right. Thanks for tabbing that out. I think I may have figured out the riff at the end of the bridge. Let me know what you think!

e|---------------------------------------------------------------------------|
B|---2---0------------------------------------------------------------------|
G|----------4---2---0------0---4---2---0---2----------------------------|
D|--------------------------------------------------0---0-------------------|
A|---------------------------------------------------------------------------|
E|---------------------------------------------------------------------------|
#5
what I was trying to show you is the chords that follow this bass line:

e|---------------------------------------------------------------------------|
B|---------------------------------------------------------------------------|
G|---------------------------------------------------------------------------|
D|--------3--2--------------------------------------------------------------|
A|-----------------3--2--3------2--3--2-----------------------------------|
E|-------------------------------------------3--------------------------------|
that's the bass at the end of the verse....