#1
http://www.youtube.com/watch?v=z2YkhFPYSN4&feature=related

At 20-29 or so I'm playing,

INTRO: X2
Guitar 1
e------------------------------------------------------------------------------
b------------------------------------------------------------------------------
g------------------------------------------------------------------------------
d-------------2------------------0-----------------2------------------0-------
a---0-1-3----------0-1-3--------------0-1-3------------0-1-3---------3--
D------------------------------------------------------------------------------
x x x x x x x x x x x x

From 29 to 38 should it be the same thing just with distortion and everything kicked in or like this?

Fat Lip Tab by Sum 41, www.Ultimate-Guitar.Com

Artist: Sum 41
Album: All Killer No Filler
Song: Fat Lip
Tabbed By: Nickelback
Email: the_cool_dude89@hotmail.com


INTRO: X2
Guitar 1
e-------------------------------------------------------------
b-------------------------------------------------------------
g-------------------------------------------------------------
d--------6----------------6-----------------------------------
a----------------9---------------9-7--------------------------
D--6-7-9---6-7-9---6-7-9---6-7-9------------------------------


Guitar 1 X2 Guitar 2 X2
e-------------------------------|----------------------------------
b-------------------------------|----------------------------------
g-------------------------------|----------------------------------
d--022-6-022-4-022-6-022-4-2----|--0222-0227-0222-0227-------------
a--022---022---022---022--------|--0222-0227-0222-0227-------------
D--022---022---022---022--------|--0222-0227-0222-0227-------------


Sorry if it sounds confusing, but I'm not sure how else to explain it.
Last edited by Jx210 at May 18, 2008,
#2
Sorry to be mean, but your linking is useless
The video you've linked to is a cover of Blink 182's 'Dammit' and the UG link is pointless.

Anyway...
The intro riff just plays twice through and then you go into the chord variation.

If you're struggling to work out the order download Powertab and check out this. It'll play it to you and guide you through the order of the song.
Quote by Mia (Pulp Fiction)
Why do we feel it's necessary to yak about bullsh*t in order to be comfortable?

That's when you know you found somebody special. When you can just shut the f*ck up for a minute, and comfortably share silence.

RateYourMusic