#3
here's the song:

Intro:
e|-------------------------------0------------
B|----2---2-----3---------2--------3--------
G|----2---2-----2---------2--------0--------
D|-------------------------------------------- (2)
A|-----0--0-----2----------------------------
E|--------------------------2--------3-------


Verse:

e|----2-----5-----0--------------0------------
B|--------------------------3-----------2-------
G|----2------------2-------2-----------2------ (3)
D|----0-----------------------------------------
A|------------------4-------2-----------0------
E|-----------------------------------------------


e|----2-----5-----0--------------0----0---------
B|--------------------------3-----------3---------
G|----2------------2-------2-----------0---------
D|----0---------------------------------2---------
A|------------------4-------2-----------2--------
E|---------------------------------------0--------


e|-------------------------------0------------
B|----2---2-----3---------2--------3--------
G|----2---2-----2---------2--------0--------
D|-------------------------------------------- (2)
A|-----0--0-----2----------------------------
E|--------------------------2--------3-------


e|------------------------------------------------------------------------------------------|
B|----3-----3---3-------3------3----3------3-----3----3-------3-----3---3-------------|
G|----0-----0---0-------2------2----2------0-----0----0-------2-----2---2--------------|
D|----0-----0---0-------0------0----0------0-----0----0-------0-----0---0---------------|
A|--------------------------------------------------------------------------------------------|
E|----0-----0---0-------2------2----2------3-----3----3-------2-----2---2-------------|


Chorus:
e|----2-----5-----0--------------0------------
B|--------------------------3-----------2-------
G|----2------------2-------2-----------2------ (2)
D|----0-----------------------------------------
A|------------------4-------2-----------0------
E|-----------------------------------------------


e|----2-----5-----0--------------0----0---------
B|--------------------------3-----------3---------
G|----2------------2-------2-----------0---------
D|----0---------------------------------2---------
A|------------------4-------2-----------2--------
E|---------------------------------------0--------

Bridge:

e|-------------------------------------------------------------------------------------------------------|
B|-----0-----0----0-------0-----0-----0-------0-----0----0-------3-------3----3-----------3-------|
G|-----0-----0----0-------2-----2-----2-------0-----0----0-------0-------0----0-----------4-------|
D|-----2-----2----2-------2-----2-----2-------2-----2----2-------2-------2----2-----------5------|
A|------------------------------------------------3-----3----3-------0-------0----0-----------0-------|
E|-----0-----0----0-------2------2----2-------------------------------------------------------------|
#4
i think the intro sounds more like


e|--------------------------0-------------------------------0-------------------
B|-----------------2----2-------3--------2--2--3-----2-------3-----
G|-----------------2----2-------0--------2--2--2-----2-------0
D|----------------------------------------------------------------------
A|-----------------------------------------0--0--2-------------------
E|-----------------2----2-------3----------------------2-------3

this is based on my hears cuz my guitar is currently broken.

the 3rd note is an open string so i thot it was like that.

wow u are my hero for doing this ^_^ <3
#5
wait wait the intro is more like

e|-----------------0----------------------------0-------
B|-------3-----2-----3------2--2--3------2-------3-----
G|-------0-----2-----0------2--2--0------2-------0---
D|--------------------------------------------------------
A|-----------------------------------------------------------
E|-------3-----2-----3------0--0--3------2-------3--------