#2
Well it's in the key of D major. (hope that helped)
Gear:
Epiphone G-400 Ebony
Line-6 UberMetal, EchoPark
Boss RC-2 Loop Station
Traynor YCV50Blue, Bass Mate 25, Guitar Mate 15
#4
Quote by Pyrest
Do you want it as a guitar pro format?


anyway would be appreciated i cant read sheet music and i want to learn it lol
#5
   E E  H  E E   E E E E  Q. E   E E H  E E   E E E E   H  W
e|-2-0--2--2-3-|-2-0-2---------|-------------|------------|------------------|
B|-------------|-------0--0----|-0-2--3--3-3-|-2-0--------|------------------|
G|-------------|-------------2-|-------------|-----2------|------------------|
D|-------------|---------------|-------------|-------4--4-|-4----------------|
A|-------------|---------------|-------------|------------|------------------|
E|-------------|---------------|-------------|------------|------------------|
   E E  H  E E   E E E E Q. E    E E  H  E E  S S E  H  Q    Q  H.   W
e|-2-0--2--2-3-|-2-0-2---------|-----------0-|-------------|-------|---------|
B|-------------|-------0--0----|-0-2--3--3---|-3-2-0--2----|----0--|--0------|
G|-------------|-------------2-|-------------|-------------|--2----|---------|
D|-------------|---------------|-------------|-----------4-|-------|---------|
A|-------------|---------------|-------------|-------------|-------|---------|
E|-------------|---------------|-------------|-------------|-------|---------|

    Q  H.     W        Q  H.       W         Q   H.       W
e|--2--4---|---3-----|-0--2-----|--2-----|---2---4---|----3------------------|
B|---------|---------|----------|--------|-----------|-----------------------|
G|---------|---------|----------|--------|-----------|-----------------------|
D|---------|---------|----------|--------|-----------|-----------------------|
A|---------|---------|----------|--------|-----------|-----------------------|
E|---------|---------|----------|--------|-----------|-----------------------|

    E  H.     H.  E E    S S S S  H.   S S S S  H   E E   E E H.        W
e|--0--2---|--2---2-2-|--2-0--------|--0----------------|----------|---------|
B|---------|----------|------3-2--3-|----3-2-0---2--2-0-|-0--------|---------|
G|---------|----------|-------------|-------------------|---2------|---------|
D|---------|----------|-------------|-------------------|------4---|----4----|
A|---------|----------|-------------|-------------------|----------|---------|
E|---------|----------|-------------|-------------------|----------|---------|

   E E  H  E E   E E E E Q. E    E E  H  E E  S S E  H  Q    Q  H.   W
e|-2-0--2--2-3-|-2-0-2---------|-----------0-|-------------|-------|---------|
B|-------------|-------0--0----|-0-2--3--3---|-3-2-0--2----|----0--|--0------|
G|-------------|-------------2-|-------------|-------------|--2----|---------|
D|-------------|---------------|-------------|-----------4-|-------|---------|
A|-------------|---------------|-------------|-------------|-------|---------|
E|-------------|---------------|-------------|-------------|-------|---------|


Here you go, might not be entirely correct, a bit tired, but hope this helps
#7
Quote by silvadolla
   E E  H  E E   E E E E  Q. E   E E H  E E   E E E E   H  W
e|-2-0--2--2-3-|-2-0-2---------|-------------|------------|------------------|
B|-------------|-------0--0----|-0-2--3--3-3-|-2-0--------|------------------|
G|-------------|-------------2-|-------------|-----2------|------------------|
D|-------------|---------------|-------------|-------4--4-|-4----------------|
A|-------------|---------------|-------------|------------|------------------|
E|-------------|---------------|-------------|------------|------------------|
E E H E E E E E E Q. E E E H E E S S E H Q Q H. W
e|-2-0--2--2-3-|-2-0-2---------|-----------0-|-------------|-------|---------|
B|-------------|-------0--0----|-0-2--3--3---|-3-2-0--2----|----0--|--0------|
G|-------------|-------------2-|-------------|-------------|--2----|---------|
D|-------------|---------------|-------------|-----------4-|-------|---------|
A|-------------|---------------|-------------|-------------|-------|---------|
E|-------------|---------------|-------------|-------------|-------|---------|

Q H. W Q H. W Q H. W
e|--2--4---|---3-----|-0--2-----|--2-----|---2---4---|----3------------------|
B|---------|---------|----------|--------|-----------|-----------------------|
G|---------|---------|----------|--------|-----------|-----------------------|
D|---------|---------|----------|--------|-----------|-----------------------|
A|---------|---------|----------|--------|-----------|-----------------------|
E|---------|---------|----------|--------|-----------|-----------------------|

E H. H. E E S S S S H. S S S S H E E E E H. W
e|--0--2---|--2---2-2-|--2-0--------|--0----------------|----------|---------|
B|---------|----------|------3-2--3-|----3-2-0---2--2-0-|-0--------|---------|
G|---------|----------|-------------|-------------------|---2------|---------|
D|---------|----------|-------------|-------------------|------4---|----4----|
A|---------|----------|-------------|-------------------|----------|---------|
E|---------|----------|-------------|-------------------|----------|---------|

E E H E E E E E E Q. E E E H E E S S E H Q Q H. W
e|-2-0--2--2-3-|-2-0-2---------|-----------0-|-------------|-------|---------|
B|-------------|-------0--0----|-0-2--3--3---|-3-2-0--2----|----0--|--0------|
G|-------------|-------------2-|-------------|-------------|--2----|---------|
D|-------------|---------------|-------------|-----------4-|-------|---------|
A|-------------|---------------|-------------|-------------|-------|---------|
E|-------------|---------------|-------------|-------------|-------|---------|


Here you go, might not be entirely correct, a bit tired, but hope this helps


fantastic thank you very much
#9
e|---2--0--2---2--3---2--0--2-------------------------------------------|
B|----------------------------------0---0--------0--2--3--3--3--2--0----|
G|-------------------------------------------2-----------------------------2|
D|---------------------------------------------------------------------------|
A|---------------------------------------------------------------------------|
E|---------------------------------------------------------------------------|

e|----------------2--0--2--2-3--2--0--2-------------------------------0-|
B|--------------------------------------------0---0--------0--2--3--3-----|
G|-----------------------------------------------------2--------------------|
D|---4--4--4---------------------------------------------------------------|
A|---------------------------------------------------------------------------|
E|---------------------------------------------------------------------------|

e|------------------------------------2---4---3-----0---2---2---2---4---3--|
B|--3--2--0---2----------0---0----------------------------------------------|
G|----------------------2----------------------------------------------------|
D|------------------4--------------------------------------------------------|
A|---------------------------------------------------------------------------|
E|---------------------------------------------------------------------------|

e|---0--2--2--2--2---2--0--------------0----------------------------------|
B|-----------------------------3--2--3-------3--2--0--2--2--0---0--------|
G|-----------------------------------------------------------------------2----|
D|--------------------------------------------------------------------------4-|
A|-----------------------------------------------------------------------------|
E|-----------------------------------------------------------------------------|

e|--------2--0--2--2--3--2--0--2--------------------------0------------0-|
B|------------------------------------0--0---------2--3--3-----3--2--0----|
G|------------------------------------------2---0----------------------------|
D|---4-----------------------------------------------------------------------|
A|---------------------------------------------------------------------------|
E|---------------------------------------------------------------------------|

e|---------------------------------------------------------------------------|
B|---------0--0----------------------------------------------------------------|
G|-----2----------------------------------------------------------------------|
D|-4--------------------------------------------------------------------------|
A|---------------------------------------------------------------------------|
E|---------------------------------------------------------------------------|


Yeah you will have to figure out the timing but I tabbed it for you
#10
the second link looks a lot more technically difficult, it has thirty-second notes, triplets, and gallops...
#11
Track 1
      E  E  H        E  E     E  E  E  E  Q.     E     E  E  H        E  E   
E||------------------------|------------------------|-----------------------|
B||---7--5--7--------7--8--|--7--5--7---------------|-----------------------|
G||*-----------------------|-----------4--4---------|--4--6--7--------7--7--|
D||*-----------------------|---------------------7--|-----------------------|
A||------------------------|------------------------|-----------------------|
E||------------------------|------------------------|-----------------------|


  E  E  E  E  H           W                   E  E  H        E  E   
-----------------------|-------------------|-----------------------|
-----------------------|-------------------|--7--5--7--------7--8--|
--6--4-----------------|-------------------|-----------------------|
--------7--4--4--------|--4----------------|-----------------------|
-----------------------|-------------------|-----------------------|
-----------------------|-------------------|-----------------------|


  E  E  E  E  Q.     E     E  E  H        E  E     S S E  H        Q     
------------------------|-----------------------|-----------------------|
--7--5--7---------------|--------------------5--|-----------------------|
-----------4--4---------|--4--6--7--------7-----|--7-6-4--6-------------|
---------------------7--|-----------------------|------------------4----|
------------------------|-----------------------|-----------------------|
------------------------|-----------------------|-----------------------|


  Q    H.              W                     Q    H.            
--------------------|--------------------||--------------------|
--------------------|--------------------||--7----8------------|
-------4------------|--4----------------*||--------------------|
--7-----------------|-------------------*||--------------------|
--------------------|--------------------||--------------------|
--------------------|--------------------||--------------------|


  W                   Q    H.              W                 
-------------------|--------------------|-------------------|
--8----------------|--5----7------------|--7----------------|
-------------------|--------------------|-------------------|
-------------------|--------------------|-------------------|
-------------------|--------------------|-------------------|
-------------------|--------------------|-------------------|


  Q    H.              W                   Q    H.            
--------------------|-------------------|--------------------|
--7----8------------|--8----------------|--5----7------------|
--------------------|-------------------|--------------------|
--------------------|-------------------|--------------------|
--------------------|-------------------|--------------------|
--------------------|-------------------|--------------------|


  H.           E  E     S S S S H.              S S S S H        E  E   
---------------------|-----------------------|-------------------------|
--7------------7--7--|--7-5------------------|--5----------------------|
---------------------|------7-6-7------------|----7-6-4-6--------6--4--|
---------------------|-----------------------|-------------------------|
---------------------|-----------------------|-------------------------|
---------------------|-----------------------|-------------------------|


  E  E  H.              W                   E  E  H        E  E   
---------------------|-------------------|-----------------------|
---------------------|-------------------|--7--5--7--------7--8--|
--4------------------|-------------------|-----------------------|
-----7--4------------|--4----------------|-----------------------|
---------------------|-------------------|-----------------------|
---------------------|-------------------|-----------------------|


  E  E  E  E  Q.     E     E  E  H        E  E     S S E  H        Q     
------------------------|-----------------------|-----------------------|
--7--5--7---------------|--------------------5--|-----------------------|
-----------4--4---------|--4--6--7--------7-----|--7-6-4--6-------------|
---------------------7--|-----------------------|------------------4----|
------------------------|-----------------------|-----------------------|
------------------------|-----------------------|-----------------------|


  Q    H.              W                  
--------------------|-------------------||
--------------------|-------------------||
-------4------------|--4----------------||
--7-----------------|-------------------||
--------------------|-------------------||
--------------------|-------------------||


Duration Legend
---------------
W - whole
H - half
Q - quarter
E - 8th
S - 16th
T - 32nd
X - 64th
. - note dotted
|-n-|  - n-tuplets


Tablature Legend
----------------
L - tied note
x - dead note
g - grace note
(n) - ghost note
> - accentuded note
NH - natural harmonic
AH - artificial harmonic
TH - tapped harmonic
SH - semi harmonic
PH - pitch harmonic
h - hammer on
p - pull off
b - bend
br - bendRelease
pb - preBend
pbr - preBendRelease
brb - bendReleaseBend
\n/ - tremolo bar dip
\n - tremolo bar dive
-/n - tremolo bar Release up
/n\ - tremolo bar inverted dip
/n - tremolo bar return
-\n - tremolo bar Release down
S - shift slide
s - legato slide
/ -  slide into from below or out of upwards
\ -  slide into from above or out of downwards
~ - vibrato
W - wide vibrato
tr - trill
TP - tremolo picking
T - tapping
S - slap
P - pop
< - fade in
^ - brush up
v - brush down



There you go
#12
i am genuienly thrilled here i am very thankfull that yous have taken the time to do that thank you again
#14
Quote by estranged_2003
is there a programme you use to get it tabbed or did yous just know that was it?


I can read sheet music, so I can convert from notation to tablature.
I put it into GP5 to make it easier for you to read when I put it into the Code text.
That way it shows rhythm as well as tablature.
#15
didn't use a program either, I play saxophone in my school's band. however, there's free tablature software like power tab that allows you to read the staff and the tab notation simultaneously