#1
This guy called Passion does a cover of John Legend's Ordinary people on guitar and I was wondering if anyone has a tab for that.
#2
Tuning standard and capo on 3rd fret

I just put 4 alternatives for the verse that he plays....

Verse1
Gmaj7 Cmaj7 Dmaj7
e|---------------3----------2------------------------------------|
B|---------------5----------2------------------------------------|
G|-----4--------4----------2-----------2/4-----2--------------|
D|-----4--------5----------0-------0---------------------------|
A|-----5--------3------------------------------------------------|
E|-----3----------------------------------------------------------|

Verse 2
Gmaj7 Cmaj7 Dmaj7
e|---------------3----------2-------2------1-----------------------|
B|---------------5----------2-------2------1-----------------------|
G|-----4--------4----------2-------2------1-----------------------|
D|-----4--------5----------0---------------------------------------|
A|-----5--------3---------------------------------------------------|
E|-----3------------------------------------------------------------|

Verse 3
Gmaj7 Cmaj7 Dmaj7
e|---------------3--------------------------------------------|
B|---------------5----------7----------7-----6---------------|
G|-----4--------4----------6----------6-----5---------------|
D|-----4--------5----------7----------7-----6---------------|
A|-----5--------3----------5----------5-----4---------------|
E|-----3-------------------------------------------------------|

Verse 4
Gmaj7 Cmaj7 Dmaj7
e|---------------3------------------------------------------|
B|---------------5----------7------------------------------|
G|-----4--------4----------6-----------------------------|
D|-----4--------5----------7----------7/9------7--------|
A|-----5--------3----------5-----5-----------------------|
E|-----3---------------------------------------------------|

Bridge:
Gm7 Dmaj7 Gm7 Dmaj7 Am7
e|---------------------------------------------------------------------------|
B|------3--------7--------3--------7-------5-------------------------------------|
G|------3--------6--------3--------6-------5---------------------------------------|
D|------3--------7--------3--------7-------5--------------------------------------|
A|----------------5-----------------5------------------------------------------|
E|------3-----------------3-----------------5-----------------------------------|