#2
Its crazy that you should ask cause I know I've tried figuring out that for myself like a year ago when i watched this video. That SAME exact progression. Its nucking futs.

And he looks like such a stoner...

I'll try figuring it out.
I'm Tyler
#3
YES HE DOES! lol thanks for trying to help if you dont get it then i can watch the video and try and tab it out myself im just really lazy and would apreciate if some1 could do it for me. that sounded really bad....
#4
good luck with the solo, but heres my take on the progression:

e|-0--------------------------2------0---------|
B|-0--------------------------3------2---------|
G|-1----2p1-1--2p1-1-----2------2---------|
D|-2--------------------------0------2---------|
A|-2----------------------------------0---------|
E|-0---------------------------------------3p0-|


i thinks its just an E chord, with a couple pull offs, then some strumming on D, A and a pulloff back to E

Not sure if its right, but its a start
#5
your definetly right about the E,D,A he said so in the video. ill go get my guitar and see if thats right. thanks for the help!
#6
-------------------------2-----------
-------------------------3---0--------
---1--1-h-2-2-2--1---2---2--------
---2-------2-2-2--2---0---2--------
---2----------------2-------0--------
-0~----------------------------3--0--


You kinda have to work out the rhythm but i think this is close
I'm Tyler
#7
thanks alot both of you i got the chord progression made up on guitar pro now and i got it to work. thanks a ton if you can get the solo then great if not then youve done enough thanks alot!
#8
-------------------------2-----------
-------------------------3---0--------
---1--1-h-2-2-2--1---2---2--------
---2--0----0-0-0--2---0---2--------
---2----------------2-------0--------
-0~----------------------------3--0--


Its a little better this way i think
I'm Tyler