#2
capo on 1st fret

Intro:
Strum chords)
e|----2-----2------0------0------0-------0--------0------0----0------0-----2------2------------|
B|----3-----2------0------2------3p2----2--------0------2----3p2---2-----3------2-------------|
G|----2-----2------0------2------2-------2--------0------2----2------2-----2------2-------------|
D|----0-----4------2------2------2-------2--------2------2----2------2-----0------4--------------|
A|-----------4------2------0------0-------0--------2------0----0------0------------4-------------|
E|-----------2------0--------------------------------0---------------------------------2------------|

Verse and chorus: Em A D F#m Em A D (F#m)

Solo: Em A D F#m Em A F#m G Em A D F#m Em A D

e|---------------------------------------------------------------------------|
B|-----5---7--7/8--8---88---7--5-----3--5---5/7---7--77---5--------|
G|---------------------------------------------------------------------7------|
D|---------------------------------------------------------------------------|
A|---------------------------------------------------------------------------|
E|---------------------------------------------------------------------------|

e|-----------------------------------------------------------------------------------------------------------|
B|-----5---7--7/8--8---88---7--7p5---------------------------------------------------------------------|
G|------------------------------------------7--6--6------6--6/7--7---6\4---4/7--6---------------------|
D|-----------------------------------------------------9---------------------------------9\7---7/11--9---|
A|-----------------------------------------------------------------------------------------------------------|
E|------------------------------------------------------------------------------------------------------------|


e|---------------------------------------------------------------------------|
B|---7\5---7/9--7---/11 12~--------------------------------------------|
G|---------------------------------------------------------------------------|
D|---------------------------------------------------------------------------|
A|---------------------------------------------------------------------------|
E|---------------------------------------------------------------------------|

Last part of song : Em A F#m G Em A D
Last edited by crmrz at May 23, 2008,