#1
I was learning corey's very first lick and I was wondering which picking pattern is more efficient/better? I would probably go with the third but the first one sounds more like the album version. Thoughts?

E-18-15---------------------------------15-18---|
B------16-15----------------------15-16---------|
G------------15-12----------12-15---------------|
D------------------13-12-13---------------------|
A-----------------------------------------------|
D-----------------------------------------------|


E-18-15---------------------------------15-18---|
B------16-15----------------------15-16---------|
G------------15----------------15---------------|
D---------------17----------17------------------|
A------------------18-17-18---------------------|
D-----------------------------------------------|


E-18-15-------------------------------15-18---|
B------16-15-11--------------11-15-16---------|
G---------------12---------12-----------------|
D-----------------13-12-13--------------------|
A---------------------------------------------|
D---------------------------------------------|
#3
the first is best. once you get the position shifts down it'll feel a lot better. you don't really want to have those stretches from the third one or the leap of faith the second one requires
#4
I wish i could do the solo I need more skillz
Quote by SharpSpoon
I think I can safely say I would still bang her knowing this information.


Lmao ^

Grundy0 > Cancer!