#1
Anyone has an accurate Tab for this song? I really like to learn it. I'm amazed on how Jani Lane play it.. Thanks!!
#2
hope it's not too confusing......

Intro:
e|----------------3------2-----3------------------------3-----2------3-------------|
B|--------------------3-----3------3-----------------------3------3-----3----------|
G|-----------0---------------------------------------0------------------------------|
D|-------2--------------------------------------2-----------------------------------|
A|---3-------------------------------------------------------------------------------|
E|------------------------------------------0----------------------------------------|

e|----------------3p2------------2h3-----------------------3--------3----------|
B|------------3----------3--------------3------------------------3----3-----------|
G|-------2-------------------2--------------0-------------0-----------0------------|
D|----0-------------------------------------------------2--------------2----------|
A|---------------------------------------------------3------------------3---------|
E|---------------------------------------------------------------------------|

Verse:
e|-------------0------------0------------0------------------------------------3-----|
B|----------3------------3------------3----------------------------------3---3------|
G|-------0------------0------------0------------------7+------------0-------0-------| (2)
D|----5------------4------------2---------------------7+---------2----------2--------|
A|-----------------------------------------------/5------------/3-------------3-------|
E|----------------------------------------------------------------------------------|

(strum the chords)

e|-----3-------3-------3----3----3-3-------3------3------3-------3---------------------|
B|-----3-------3-------3----3----3-3-------3------3------3-------3----------------------|
G|-----0-------2-------0----0----0-2-------0------2------0-------0----------------------|
D|-----2-------2-------2----0----0-0-------2------2------2-------0-----------------------|
A|-----2-------0-------3----2----2----------2------0------3-------2--------------------|
E|-----0---------------------3----3----------0----------------------3-----------|


e|--3---3-----2----3p2------------2h3-------------------------3-------|
B|--3---3-----3-----------3----------------3------------------------3----|
G|--0---0-----2---------------2----------------0------------0------------|
D|--2---2-----0------------------------------------------2-----------------|
A|--2---3------------------------------------------3---------------------|
E|--0-------------------------------------------------------------------|


e|--3----3----2----3p2------------2h3-------------------------3--------------3-----------|
B|--3----3----3-----------3----------------3------------------------3--------------3------|
G|--0----0----2---------------2----------------0------------0---------------0------------|
D|--2----2----0------------------------------------------2---------------------------------|
A|--2----3-----------------------------------------3-------------------- -------------------|
E|--0----------------------------------------------------------------------0---------------|


(I)
e|--------------------------------------------------------3-----------------3----|
B|----------------3p2----------2h3------------------------3-----------------3-|
G|------------2--------2-----------------------------0----------------0---------|
D|--------2----------------2----------------------2-----------------------------|
A|-----0-------------------------------0---2--3--------------------------------|
E|-----------------------------------------------------------------0--------------|



e|--------------------------------------------------------3-------3-----3----2----3p2---------3------------|
B|----------------3p2----------2h3------------------------3---3------3----3---------3-------3------------|
G|------------2--------2-----------------------------0----------0------0----2--------------2--0----------|
D|--------2----------------2----------------------2-------------2------2----0------------------0---------|
A|-----0-------------------------------0---2--3-----------------3-----3------------------------2----------|
E|-------------------------------------------------------------------------------------------------3--------|

e|-----3-----2----3p2-------------|
B|-----3-----3-----------3---------|
G|-----0-----2----------------2----| and then intro...
D|-----2------0---------------------|
A|-----3------------------------------|
E|-------------------------------------|

Bridge:

e|---3-----3-----3-----2------3--------|
B|---3-----3-----3-----3------3----------|
G|---0-----0-----0-----2------0----------|
D|---2-----2-----0-----0------2------------|
A|---3-----2-----2-------------3------------|
E|----------0-----3----------------------|

e|--3---3-----2----3p2------------2h3-------------------------3----------3-----3------|
B|--3---3-----3-----------3----------------3------------------------3------3------3----|
G|--0---0-----2---------------2----------------0------------0--------------0------0----|
D|--2---2-----0------------------------------------------2------------------2------0---|
A|--2---3------------------------------------------3-------------------------2------2--|
E|--0-------------------------------------------------------------------------0------3----|


e|-----2----3p2------------2h3-------------------------3----------------3-----|
B|-----3-----------3----------------3------------------------3----------------3-|
G|-----2---------------2----------------0------------0----------------0--------|
D|-----0------------------------------------------2------------------------------|
A|-------------------------------------------3------------------------------------|
E|-------------------------------------------------------------------0------------|

then repeat (I) with intro...
Last edited by crmrz at May 22, 2008,