#1
i noe theres already a thread for this but its old so ima just do it again
Song: "When I'm Gone"
Artist: Simple Plan
Album: Simple Plan
Tuning: Standard

1st Verse: Very simple!!!!
|------------------------------------------------|
|------------------------------------------------| For the verse, each chord is played 3 times
|------------------------------------------------| Then repeat the whole thing once
|---------8--5----------------------------------|
|--5--8--6--3----------------------------------|
|--3--6-----------------------------------------|

1st Chorus:
|-------------------| For the chorus, the first 3 chords are played
|-------------------| 3 times but the last chord is hit 4 times
|-------------------| Play this whole part three times
|--8----------------|
|--6--8--5--3------|
|-----6--3--1-------|

After Chorus:
|---------------------------|
|---------------------------|
|---------------------------| Play each chord (4?) times before
|-8---------5--------------| playing the preverse
|-6--8--5--3--------------|
|----6--3------------------|

1st PreVerse:
|-----------------|
|-----------------|
|-----------------| Play the first 3 chords twice but
|------8-5-------| hit the last chord 4 times for each
|--5-8-6-3------| time it repeats
|--3-6-----------| play this part twice

2nd Verse: Same as before
|------------------------------------------------|
|------------------------------------------------| For the verse, each chord is played 3 times
|------------------------------------------------| Then repeat the whole thing once
|---------8--5----------------------------------|
|--5--8--6--3----------------------------------|
|--3--6-----------------------------------------|

2nd Chorus: Same as before

|-------------------| For the chorus, the first 3 chords are played
|-------------------| 3 times but the last chord is hit 4 times
|-------------------| Play this whole part three times
|--8----------------|
|--6--8--5--3------|
|-----6--3--1-------|

After Second Chorus:
|---------------------------|
|---------------------------|
|---------------------------| Play each chord (4?) times before
|-8---------5--------------| playing the preverse
|-6--8--5--3--------------|
|----6--3------------------|

2nd Pre-Verse:
|-----------------|
|-----------------|
|-----------------| Play the first 3 chords twice but
|------8-5-------| hit the last chord 4 times for each
|--5-8-6-3------| time it repeats
|--3-6-----------| play this part twice

Interlude: The Awesome Techno Intro/Interlude/Outro music play here
|-------------------------------|
|-------------------------------|
|-------------------------------|
|-------------------------------| after this is the bridge
|-------------------------------| you can do a slide but i prefer
|-----------(pick-scrape)------| a pick scrape (scrape your big along the strings)

Bridge: Same as before but played a bit differently
|------------------------------------------------| this whole bridge is played twice
|------------------------------------------------| play these chords a bit faster
|------------------------------------------------| just listen to the song and ull
|---------8--5----------------------------------| hear the rhythm
|--5--8--6--3----------------------------------| hit each chord 4 times according
|--3--6-----------------------------------------| to the beat of the song

3rd Chorus: Same as previous
|-------------------| For the chorus, the first 3 chords are played
|-------------------| 3 times but the last chord is hit 4 times
|-------------------| Play this whole part three times
|--8----------------|
|--6--8--5--3------|
|-----6--3--1-------|

After 3rd Chorus:
|---------------------------|
|---------------------------|
|---------------------------| Play each chord (4?) times before
|-8---------5--------------| playing the preverse
|-6--8--5--3--------------|
|----6--3------------------|

Outro: Same thing as Preverse but its just used as an outro
|-----------------|
|-----------------|
|-----------------| Play the first 3 chords twice but
|------8-5-------| hit the last chord 4 times for each
|--5-8-6-3------| time it repeats
|--3-6-----------| play this part four times

thatz the whole song :] this is my fav. SP song ever !