#1
Hey guys, I've been tryin to work out Matt Nathanson's song 'All been said before' but I can't seem to get it to sound right...I can't find tabs for it anywhere on the internet. Its mostly just a series of bar chords..was wonderin if anyone could help me out in tabbing this song. thanks!
#3
Try this:
e|-------------------2------5------0-------0----0----------0-----0----------------|
B|----2-------5-----2------5------0-------3----2/3-------0-----0----------------|
G|----2-------2-----2------2------1-------2----1/2-------7-----6----------------| (8)
D|----2-------2-----2------2------2-------0----0----------x-----x----------------|
A|----0-------x-----4--------------2-------x-----x---------7-----7----------------|
E|-------------4-----2--------------0------2-----1/2------0-----0----------------|

e|----0-------0------0------0-------|
B|----10------3------0-----0--------|
G|----9-------2------7------6-------|
D|----0-------0------x------x--------| (2)
A|----x-------x-------7-----7---------|
E|----9-------2-------0-----0--------|

e|------0-------0-------|
B|------3-------3-------|
G|------2-------4-------|
D|------0-------4-------|
A|------x--------2-------|
E|------2----------------|

Bridge:
e|------0------0----0----------0-----0---------------------0-------------------------0---------------------|
B|------0------0----0----------3-----3--------2-----5-----3-----5-----2-----2-----3-------------|
G|------5------9----9----------2-----4--------2-----2-----2-----2-----2-----2-----2----9------------|
D|------6------6----6----------0-----4--------2-----2-----0-----2-----2-----2-----0----7---------|
A|------0------0----x----------x------2--------0-----x-----x------x----0-----x-----x-----7-------|
E|-------------------7----------2----------------------4-----2-----4-----------4-----2-----0---------|