#1
how does John Petrucci get that rhythm in the intro to glasgow kiss? i know that its not sweep picked, but alternate picking doesnt sound right either.


E||---------------------------------------|
B||-----------7--------10--7--9--7--------|
G||--------9-----9------------------9-----|
D||-----9-----------9------------------9--|
A||--7------------------------------------|
E||---------------------------------------|


                                                                               
--------------------------------------|---------------------------------------|
-----------7--------------------------|-----------7--------10--7--9--7--------|
--------9-----9-----7--6-----------6--|--------9-----9------------------9-----|
-----9-----------9--------9--7--9-----|--9--------------9------------------9--|
--7-----------------------------------|-----7---------------------------------|
--------------------------------------|---------------------------------------|


                                             
--10--7--9--7-9-7---------------------------|
-------------------10--7--10-----10-----10--|
------------------------------9------7------|
--------------------------------------------|
--------------------------------------------|
--------------------------------------------|
Quote by MakinLattes
dwelling on past mishaps is for the weak. you must stride into the future, unabashed and prepared to fuck up yet again.