#1
Ok, I'v been laying for 7 months so bear with me.

I'm having alot of trouble in the song "Say Goodbye" by I Killed The Prom Queen

I can play the song perfectly up until this riff


------------------------------------------------|
------------------------------------------------|
------------------5------------------5---------|
--------5-7-8-------8-7-----7-8-----8-7-5-|
-----5---------------------7-------------------|
--0---------------------------------------------|

I have trouble playing 5 on the 5th string to 5 on the fourth string right after another,
and trying to it without barring my finger and make the two notes sound clean and apart from eachother, instead of like a power chord.


Same with the

---7-----7-----
------7-------- : Part.

Help?
#3
Quote by Vinyl_Master
Practice



Haha trust, me, I am.

I just don't know what method I should use.

Should i just lift my 1 finger up, to the string below/above it on the same fret reallllyyy fast, or cram two fingers on the fret for each string or what?
#4
i would bar both 5th fret,4th and 5th string and roll off the 5th string and mute it
with my thumb when picking the 4th string.
if that makes any sence.