#1
Kind of a weird request here...

Here is the video: http://www.youtube.com/watch?v=4bUch5dveX0

At 1:50, Clapton begins one of his traditional solo's. I can't find a tab, and probably for good reason, since Clapton improvises nearly all of his solos.

It doesn't seem too complex, but I am struggling to get it down.

Does anyone have enough spare time to throw a rough tab of this solo together? I think the progression is something like G-Em-Bm-C-D-G-Em-Bm...etc
Last edited by Bravo86 at May 26, 2008,
#2
Dunno if you have found the tab yet - you probably have seeing how old the comment was! Here it is (copied from http://www.azchords.com/d/dylanbob-tabs-5069/mybackpages30th-tabs-54636.html - All credit to Gil Steinbrecher)


(Eric Clapton's guitar solo):

E C#m G#m
e:--------------|------------------------------------|-------------------------------------|
B:----------17-|-19b(21)--19b(21)--19b(21)-|-19b(21)r19--17h19------17--|
G:16-h18-----|------------------------------------|--------------------18-------------|
D:--------------|------------------------------------|------------------------------------|
A:--------------|------------------------------------|------------------------------------|
E:--------------|------------------------------------|------------------------------------|


A B E
e:-------------------------------------------------------------|-------16--17-|
B:-19b(21)r19--17------17-------------------------------|-----------------|
G:-----------------18------18-p16--18--16~~~~~~~------------------|
D:----------------------------------------------------------------|-------------|
A:----------------------------------------------------------------|-------------|
E:----------------------------------------------------------------|-------------|


E C#m G#m
e:-/19--19--19b(21)r19-|-------------------------------------------|
B:---------------------|-19b(21)r19--17-h19--17h19p17------17------|
G:---------------------|-------------------------------18----------|
D:---------------------|-------------------------------------------|
A:---------------------|-------------------------------------------|
E:---------------------|-------------------------------------------|


A B
e:-16-h17--19-----------------|------------------16-------------|
B:-------------19b(21)r19--17-|--------------17------19b(21)r19-|
G:----------------------------|-16----16h18---------------------|
D:----------------------------|---------------------------------|
A:----------------------------|---------------------------------|
E:----------------------------|---------------------------------|


C#m G#m
e:------------------------------|-------------17b(19)~~~~~~~----|
B:-19b(21)-------19b(21)r19--17-|-19----------------------------|
G:------------------------------|-------------------------------|
D:------------------------------|-------------------------------|
A:------------------------------|-------------------------------|
E:------------------------------|-------------------------------|


A B
e:----------------|------------------------------------|
B:-17------17-----|------------------------17--19------|
G:-----18------18-|-16--18--13h14--16--18--------------|
D:----------------|------------------------------------|
A:----------------|------------------------------------|
E:----------------|------------------------------------|


E A E
e:-----------------------------------------|--------------------|
B:-19b(21)r19--17------17------------------|--------------------|
G:-----------------18------18--p16---------|-------------14--16-|
D:----------------------------------18--16-|-14-h16-/18---------|
A:-----------------------------------------|--------------------|
E:-----------------------------------------|--------------------|


A B E
e:----------------------------------------------|---|
B:----------------------------------------------|---|
G:----------------------------------------------|---|
D:-------16b(18)r16--14-------------------------|---|
A:-----------------------16--14-----------------|---|
E:-------------------------------16--14--16--14-|-12|