#1
Okay, so I've tried coming up with some solos for this pattern i made it and... well... lets say I came up empty handed.

I'm young, just started learning some music theory so I could really use help.

The pattern is straight 8th notes, and here are the TABs

PP PP P
------------------
------------------
------------------
------------------ X2
-----7-----7--7-
0-0---0-0--0---

The bottom notes are Palm Muted (See Top)

------------------
------------------
------------------
------------------
-----7-----7--7-
4-4---4-4--4---

------------------
------------------
------------------
------------------
-----7-----7--7-
5-5---5-5--5---

In the background its just

-------------------------
--------------------------
--------------------------
-2~-2~-2~-2~--------
-2~-2~-2~-2~--------
-0~-0~-0~-0~--------

-------------------------
--------------------------
--------------------------
--------------------------
-7-----7-----7-----7----
-4-----4-----5-----5----

You probably get the point... anyway some pointers on how to write a solo for something like this would be nice >.>; Anyway, reply back

Thanks,
Ochazuke