#1
Was wondering if anyone could help me tab this, I'm still trying to learn how to play things by ear (in short, I suck). It sounds pretty simple,

There is a tab on the main site but it only sounded slightly right (and it seemed to have all been written upside down)

You can listen to the cover here:

http://www.youtube.com/watch?v=myOfUCu6iyc

cheers.
Last edited by CrazyDavey at May 26, 2008,
#2
this is the tab with no strumming:

Intro:

e|----5---/12-----3---------|
B|----5---/12-----3---------|
G|----0----0------0---------|
D|----0----0------x---------| (2)
A|-----------------3---------|
E|----------------------------|

e|-----7-----7------7-----7------3------------------|
B|-----7-----7------7-----7------3------------------|
G|-----0-----0------0-----0------0------------------|
D|-----x-----x------x------x------x------------------|
A|-----7-----5------7-----5------3------------------|
E|-----------------------------------------------------|


Verse:
e|----3-----3-----3-----3------3-------------------------|
B|----3-----3-----3-----3------3-------------------------|
G|----0-----2-----0-----0------0-------------------------|(2)
D|----x-----0-----2-----0------x-------------------------|
A|----3------------2------------3-------------------------|
E|-----------------0-----3---------------------------------|

e|-----7-----7------7-----7------3------------------|
B|-----7-----7------7-----7------3------------------|
G|-----0-----0------0-----0------0------------------|
D|-----x-----x------x------x------x------------------|
A|-----7-----5------7-----5------3------------------|
E|-----------------------------------------------------|


e|----3-----3-----3-----2------0------3------3--3-----3-----|
B|----3-----3-----3-----3------3------3------3--3-----3------|
G|----0-----0-----0-----2------2------0------2--0-----0------|(2)
D|----x-----0-----2-----0------0------x------0---2-----0------|
A|----3------------2--------------------2----------2--------|
E|-----------------0--------------------------------0-----3--|

Bridge:
e|----3------3------3--------3-------3------3--------------------------------------|
B|----3------3------3--------3-------3------3-------------------------------------|
G|----0------2------0--------0-------0------2--------------------------------------|
D|----x------0------2--------0-------x------0--------------------------------------|
A|----3--------------2--------x-------3------------------------------------------|
E|-------------------0--------3------------------------------------------------|

And then play intro...

Outro:
e|-----3------3------3----------------------0------------------------------------|
B|-----3------3------3----------------------3------------------------------------|
G|-----0------0------0----------------------2------------------------------------|
D|-----x------x------2----------------------0----------------------------------|
A|-----3------2------0----5----5----5-----0---------------------------------------|
E|--------------------------3----2----0-----------------------------------------|
Last edited by crmrz at May 27, 2008,
#3
This tab seems much better, cheers crmrz. Dunno if it's too much to ask, but what key is the song in?
#4
i believe it's in either B or E.
Stage Rig

Fender Strat
Epi Les Paul
Taylor 110
Boss TU-2
Omega Amps Hot Rod Deluxe (Dumble mod)
Clean/Drive/More Drive footswitch
Mid boost/Preamp boost footswitch

myspace.com/rosscooperband
#6
I was hoping that it was in G haha, thats good to know. I can play my harmonica with it then