Does anyone have (or can come up with) a tab for Unhearted by Automatic Loveletter?

#1
A friend of mine wants really badly to do this song in an acoustic, but I just couldnt figure it out.

anyone, help please..

it would be greatly appreciated.

(sorry if this is in the wrong thread or whatever Im new to this)
#2
this doesn't sound strong but at least you've got the song...Sorry if it's looks complicated, but it's a nice song with a bunch of chords...

Capo on 4th fret

Chords:
D: xx0232
Bb+: x14330
Bm: x24432
E9: 3x0432
Gmaj7:3x0032
A: x02220
Em: 022000
D/F#: 2x0232
G: 320033
A/Db: x4225x

verse:
e|---------------2--------0----------------2-------0-----------------2------0-----------------2-------0|
B|--------3-----------------------3---------------------------3-----------------------3-------------------|
G|----2------2------2--------2-------2--------2--------3-------3------3-------3-------3--------3----|
D|--------------------------------------------------------------------------------------------------------|
A|--------------------------------------------------------------------------------------------------------|
E|--------------------------------------------------------------------------------------------------------|

e|--------------2-------0--------------2-------0---------------2-------0--------------2------0-|
B|------3-----------------------3-----------------------3-----------------------3----------------|
G|---4-----4--------4------4------4-------4-------1------1-------1-------1------1------1------|
D|-----------------------------------------------------------------------------------------------|
A|--------------------------------------------------------------------------------------------------|
E|----------------------------------------------------------------------------------------------|

e|-------------2------0--------------2-----0----------------2-------0--------------2--------0-|
B|------3---------------------3-----------------------3---------------------3---------------------|
G|--0------0------0------0------0-----0--------2------2-------2------2-----2--------2----|
D|--------------------------------------------------------------------------------------------|
A|--------------------------------------------------------------------------------------------|
E|----------------------------------------------------------------------------------------------|

e|-----------------------------------------------------------------------2---------------------2--------|
B|---------------3---2---0---------------3---2---0-------------3------------3-------3-------------3|
G|-----------2---------------2-------2----------------2-------------0----0--------------2------2----|
D|--------2-------------------------------------------------------------------------0------------------|
A|---0----------------------------0--------------------------------------------------------------------|
E|-----------------------------------------------------------3------------------------------------------|

Verse: D Bb+ Bm E9 Gmaj7 D A Gmaj7

Chorus: D Bb+ Bm E9 Gmaj7 D A Em D/F# G D A Bb+ Bm A/Db D G

verse..

2nd chorus: D Bb+ Bm E9 Gmaj7 D A Em D/F# G D A Bb+ Bm

Bridge: Bm Bb+ D E9 G Bb+ Bm Bb+ D E9 G

3rd chorus: D Bb+ Bm E9 Gmaj7 D A Em D/F# G D A (2)

D/F# G D A
Last edited by crmrz at May 27, 2008,