oh man..ill be forever grateful to some1 that tabs "in the morning" by kelis......

#2
e|--------------------2---------2-2-----------2---0--0-0-------0----0-0-------------
B|--3--3-3---------------3----3-3-----------3---1--1-1-------1----1-1--1----------
G|--2--2-2---------------2----2-2-----------2---0--0-0-------0----0-0--0----------
D|--4---------------------2----2-2-----------2-----------------------------------------
A|--2--------2--------------------------2----------0-------0----0----0-0--0----------
E|-------------------------------------------------------------------------


e|---------------------------------0h2------0------0-0------0------0------0-0----------
B|--2--2-2--2------4--4-4-----------------3------3-3------3------3------3-3----------
G|--2--2-2--2------2--2-2-----------------0------0-0------0------0------0-0----------
D|--2--2-2--2------4--4-4----------------------------------------------------------------
A|--------------------2--2-2-----2--------------------------------------------------------
E|--2--2-2--2-------------------------------0------0-0------0------0------0-0----------
Last edited by crmrz at May 27, 2008,