#3
2 songs that were easy for me, were both by the Gorillaz.

Feel Good Inc. and Sunshine In A Bag.

Very easy to learn, and play along to.

For example, Feel Good Inc.:

Verse
G|--------------|--------------||
D|--------------|--------------||
A|----------3-2-|-0--0-3-2-----||
E|-0--0-2-3-----|----------3-0-||

G|--------------|--------------------||
D|--------------|--------------------||
A|----------3-2-|-0--0-3-2-----------||
E|-0--0-2-3-----|----------3-0--/12~-||

How much more easy does that have to be? Ha ha ha!

Anyway, here's the links:
Feel Good Inc. - http://www.bassmasta.net/g/gorillaz/165545.html
Sunshine In A Bag - http://www.bassmasta.net/g/gorillaz/148593.html

Rock on!
#4
Come As You Are
Quote by NGD1313
Well I don't know about solos but how about that Smoke on the Water riff. It's like...impossible.


THE TRUTH IS OUT THERE

I'm Jake. I'm a musician, philosopher, and exhibitionist.
#5
should i stay or should i go - the clash
school of rock - school of rock
are you gonna be my girl - jet
school's out - alice cooper

i just looked up the tabs and simplified them. if you want the simplified tabs just tell me.
Obama '08