#1
im in a talent show and im going to be playing in the key of e minor. its kidna liek a guitar battle type thing, and im trying to stockpile a huge amount of licks and stuff i cood play to make the kid lose. ive only ben playin for about 9 months, so i havnt ben able to find as many as i wood like, ive ben stealing them from songs but ive run out of ones to use. can anyone help me by directing me to a few new ones or a tab of some good ones?

thanks
meh
#3
e|---------------------------------------------------------------------------
B|---------------------------------------------------------------------------
G|-------------------------- 3--------------------3---5---5--b--7---3~~
D|-------------------3 h 5------5~~~-------5---------------------------
A|--------1 h 3 / 5---------------------------------------------------------
E|--1 h 3-------------------------------------------------------------------
Quote by Tatersalad1080
do what jimbleton said


^ i did something good!!

Quote by tjhome28
This.


^ to something i said!

☭UG Socialist Party ☭
Last edited by Jimbleton at May 27, 2008,
#4
Quote by Jimbleton
e|---------------------------------------------------------------------------
B|---------------------------------------------------------------------------
G|-------------------------- 3--------------------3---5---5--b--7---3~~
D|-------------------3 h 5------5~~~-------5---------------------------
A|--------1 h 3 / 5---------------------------------------------------------
E|--1 h 3-------------------------------------------------------------------


havnt givin it a big look but that looks like Gm not Em.