#3
hey, I think I can tab it...but after work, so if you check tomorrow....
#4
Tuning: Eb Ab Db Gb Bb Eb

intro and verse:
e|--------------------------------------------10---------------|
B|---8-----------10-----------12----------------12----------|
G|-------0------------0-------------0------------------0------|
D|--------------------------------------------------------------|
A|--7-------7----9------9-----10------10--------------------|
E|--------------------------------------------------------------|

e|-----------------------------------------------------------|
B|---8-----------10-----------3-------------3-------------|
G|-------0------------0-------------0-----------0---------|
D|------------------------0---------------------------------|
A|--7-------7----9----------------------------------------|
E|------------------------------3-------3------------3-----|


there's a small change during the second part of the verse:

e|------------------------------------------------10---------------|
B|-------8-----------10-----------12----------------12----------|
G|-----------0------------0-------------0------------------0------|
D|------------------------------------------------------------------|
A|--7----------------9-------9----10------10-------------------|
E|------------------------------------------------------------------| and the rest is the same...


Chorus:
e|---------------------------------------------------------------------------------------------------------------|
B|------------------3-------------------------3--------------------------3------------------------3-------------|
G|----------0----------0------0------0----------0-----0-------0-----------0-----0------0-----------0-----0-|
D|----------------------------------------------------------------------------------------------------------------|
A|------3------3----------3-------3-----3----------3----------------------------------------------------------|
E|------------------------------------------------------------3------3----------3------0------0-----------0---|

e|---------------------------------------------------------------------------------------------|
B|------------------3-------------------------3--------------------------3-------------------|
G|----------0----------0------0------0----------0-----0-------0-----------0-----0-------|
D|--------------------------------------------------------------------------------------------|
A|------3------3----------3-------3-----3----------3--------------------------------------|
E|------------------------------------------------------------3------3----------3----------|


e|---------------------------------------------------------------------------|
B|------------------3------------------------------3------------------------|
G|----------2----------2-------2----------2-----------2--------2---------|
D|-----0-------0-----------0---------0-------0------------0--------------|
A|---------------------------------------------------------------------------|
E|---------------------------------------------------------------------------|

End:
e|----------------------3-------------------------|
B|-----8------10------3-------------------------|
G|-----0------0--------0-------------------------|
D|----------------------0-------------------------|
A|-----7------9--------x------------------------|
E|----------------------3-----------------------|