#1
Yeah I'm look for something easy e.g 3-string sweeps and stuff or just a melody that sounds cool...Post away and tab it in your reply to this thread!
Cheers in Adv!!!

-Scum-Bag Carrol-
My Stuff:
Gibson Les Paul Custom
Gibson straps
Dunlop straplok
Planet wave cables
Zoom multi effects
#2
------------5-6-5-----------
---------6---------6--------
------7---------------7-----
5--8-------------------8--5


Thats a nice one that i like, and its really easy, you can also move it up and down the fret board to fit it into whatever solo you like.
Quote by boreamor
Ah very good point. Charlie__flynn, you've out smarted me


People
should
smile
more



crit4crit on 'acoustic 1 (with piano)' here



Rate my playing skills please.
#3
|---------------9h12p9------------------|
|-----------10-----------10--------------|
|--------9-------------------9------------|
|----11------------------------11--------|
|-7---------------------------------7~---|
|------------------------------------------|

or

|-----------------------12h17p12--------------------|
|-------------------13--------------13-----------------|
|--------------14-----------------------14-------------|
|----------14------------------------------14----------|
|-12h15-------------------------------------15p12---|
|---------------------------------------------------------|

Alternate Pick them or sweep if you can.