#1
Someone should tab the song "I know you xxx Marry Me," By 3CE. If you dont have the song, you can listen to it on You Tube. Thanks
#2
check this thread in a few days ...I'll tab it for you..(gotta go to work)
#3
I can't figure out the arpeggio exactly, but I'll give you an approach, the chords are:

Dbm7: x46600
Aadd9:577600
E5: x79900
Badd4:799800

in that order...

e|----------0000----------0----------------------0---------------0000--------0--------------------0----|
B|----------------------0--------0--------------0----0-----------------------0---------0-----------0----0-|
G|------------------6---------6-------------6------------------------------9--------9------------8---------|
D|------6-------------------------------7----------------------9-------------------------------9------------|
A|---4------------------------------------------------------7------------------------------------------------|
E|------------------------------------5------------------------------------------------------7---------------|

I'm not sure if they strum or arpeggio the chords, or both....

The riff at the beginnig of the song:

e|----12--11--------12--11-------12--11------12--11----------------|
B|---------------9--------------10------------9-------------12-----------|
G|---------------------------------------------------------------------------|
D|---------------------------------------------------------------------------|
A|---------------------------------------------------------------------------|
E|---------------------------------------------------------------------------|


e|----12--11--------12--11-------12--11------------------------------|
B|---------------9--------------10------------9---------12----10-----9--|
G|---------------------------------------------------------------------------|
D|---------------------------------------------------------------------------|
A|---------------------------------------------------------------------------|
E|---------------------------------------------------------------------------|