#1


this is the most popular iron man tab but is missing the bending part

|------------------------9--------/14-14-14-14p12----------
|-12p9----9-12p9----9-12---12-9-9-----------------14h-14---
|------11--------11----------------------------------------
|----------------------------------------------------------
|----------------------------------------------------------
|----------------------------------------------------------




and this version i dont think is correct either version 3 for example intro i think it ahould go like this


|----------------------------------------------------------
|----------------------------------------------------------
|----------------------------------9-9---------9-9---------
|-------------------------9-9-9h11-----11p9--------11p9----
|-----7h9-9p7----7h9-9/11-------------------11----------11-
|-7h9---------9h-------------------------------------------


please help me out finding the right solo i dont know which one is correct one. i dont have the song here so i cant listen to it and figure it out everytime i go to youtube to look for original everybody has variations of it

and the ones from ozzy osbourne sometimes they add extra stuff i just want the original one so i can play along with the song

i know probably a bunch of people asked this before but damm search bar never finds anything useful or maybe im just confused since i havent heard song in a long while


any help is appreciated
my guitar stuff:
ESP JH-600
ValveKing 112
DigiTech Whammy Pedal
Taylor 314CE
Dunlop SW-95 Slash Wah Pedal
Cordoba C7 Nylon String Acoustic Guitar
Metal muff
Fender American Deluxe Stratocaster Ash
#2
no one tab is "correct" you can play it however you want as long as you hit the right notes. However, I do think that 14 fret is actually a bent 12th fret, he pretty much stays in the ninth position
Suhr Custom, Flaxwood Rautia or Grosh Tele thru
HBE Medicine Bawl Wah
Analogman BiComp
Texas Two Step OD
Fulltone Ultimate Octave/Fuzz
Boss CE-2
TC Nova Delay
SLO-100, 65 London or Bogner Shiva
Ask me about any of this stuff!
#3
no one tab is "correct" you can play it however you want as long as you hit the right notes. However, I do think that 14 fret is actually a bent 12th fret, he pretty much stays in the ninth position


yeah i know what you mean by the right notes like 14 is the same as a full bend of the 12 but im trying to look for the one tab that has the same sound and feel to the solo with all the bends and every right note in some tabs they leave out some notes
my guitar stuff:
ESP JH-600
ValveKing 112
DigiTech Whammy Pedal
Taylor 314CE
Dunlop SW-95 Slash Wah Pedal
Cordoba C7 Nylon String Acoustic Guitar
Metal muff
Fender American Deluxe Stratocaster Ash