#1
I would like to ask that question. I would also like to say you're annoying if you have a tab in your sig (and even more annoying if you don't say what song it is)
#2
Quote by Demonology
agerihiguab ibwieufb klasjefbjk dnkjsab kjbkdjsnfkjnjaskdfnj nkjjsdf

wat
#4
e-----------------
B-----------------
G-----------------
D-----------------
A-2-----------1-2
E---2-2-3-2-----
11223344554433

has no signature.
#5
Usually they're a novelty song or something, and kinda of funny.
███████
███████████
██████████████
███████████████
█████████████
███████████████
███████████
███████

#6
They are rather annoying..but, I don't see them too often.
My Gear:
Yamaha FGX720SCA
#7
Quote by I Be Andyy
They are rather annoying..but, I don't see them too often.

How are they annoying?

I enjoy them.. I always try to play whatever it is..
sup?
#8
Quote by ldl67
How are they annoying?

I enjoy them.. I always try to play whatever it is..


me too
ಠ_ಠ
#13
E||--5--0-0-2--0----4--5----|
B||-------------------------|
G||-------------------------|
D||-------------------------|
A||-------------------------|
E||-------------------------|


This would work nicely in a signature.
#14
Quote by Lord-O-Donuts
E||--5--0-0-2--0----4--5----|
B||-------------------------|
G||-------------------------|
D||-------------------------|
A||-------------------------|
E||-------------------------|


This would work nicely in a signature.


That's already been posted, but in a different key.
D:
Signature.
#17
|-------0---------------------0--------------|
|---6---------------------6------------------|
|-----0---------------------0----------------|
|-8---------------------8--------------------|
|--------------------------------------------|
|--------------------------------------------|


win
I'm dancing in the moonlight
It's caught me in its spotlight
Dancing in the moonlight
On this long hot summer night


Martin D-28
#18
  E5
   |------6-------|  |------6-------|  |------6-------|  |------6-------|
   S  S  S  S  S  S  S  S  S  S  S  S  S  S  S  S  S  S  S  S  S  S  S  S
|-12----------------------------------------------------12----------------|
|----12----------------------------------------------12----12-------------|
|-------14--------------------------------2--4--9-14----------14----------|
|----------14--------------------------2-------------------------14-------|
|-------------14-12--------------0--2-------------------------------14-12-|
|-------------------17-12-10--5-------------------------------------------|
|
|  |------6-------|  |------6-------|  |------6-------|  |------6-------|
|  S  S  S  S  S  S  S  S  S  S  S  S  S  S  S  S  S  S  S  S  S  S  S  S
|-24p19----24----19-24p19----------19-24p19----24----19-24p19----------19-|
|-------22----22----------22----22----------22----22----------22----22----|
|----------------------------21----------------------------------21-------|
|-------------------------------------------------------------------------|
|-------------------------------------------------------------------------|
|-------------------------------------------------------------------------|
|-------------------------------------------------------------------------|
Last edited by stm22 at May 31, 2008,
#19
Quote by stm22
E5
|------6-------| |------6-------| |------6-------| |------6-------|
S S S S S S S S S S S S S S S S S S S S S S S S
|-12----------------------------------------------------12----------------|
|----12----------------------------------------------12----12-------------|
|-------14--------------------------------2--4--9-14----------14----------|
|----------14--------------------------2-------------------------14-------|
|-------------14-12--------------0--2-------------------------------14-12-|
|-------------------17-12-10--5-------------------------------------------|
|
| |------6-------| |------6-------| |------6-------| |------6-------|
| S S S S S S S S S S S S S S S S S S S S S S S S
|-24p19----24----19-24p19-------------19-24p19------24----19-24p19-----------------|
|----------22----22-------------22----22---------------22------22--------------22----22----|
|-------------------------------------21-------------------------------------------------21-------|
|----------------------------------------------------------------------------------------------------|
|----------------------------------------------------------------------------------------------------|
|-------------------------------------------------------------------------|
|-------------------------------------------------------------------------|


way to fail

EDIT: DAMN YOU AND YOUR FIXING
MYSPACE
MYUG

Quote by lp_std
no idea but your avatar wins
#20
Quote by Glen'sHeroicAct
what's that melody from? i should know, but i'm drawing a blank, and it's driving me crazy.

Shave and a haircut two bits.....they use it in cartoons alot.
Quote by sneyob
Saw extended blue dick,
clicked X.

Sorry,
force of habit


Quote by Bmm386

There is only one solution. We need to bomb outer space. That should show those terrorist bastards who's who
#21
Quote by stm22
  E5
|------6-------| |------6-------| |------6-------| |------6-------|
S S S S S S S S S S S S S S S S S S S S S S S S
|-12----------------------------------------------------12----------------|
|----12----------------------------------------------12----12-------------|
|-------14--------------------------------2--4--9-14----------14----------|
|----------14--------------------------2-------------------------14-------|
|-------------14-12--------------0--2-------------------------------14-12-|
|-------------------17-12-10--5-------------------------------------------|
|
| |------6-------| |------6-------| |------6-------| |------6-------|
| S S S S S S S S S S S S S S S S S S S S S S S S
|-24p19----24----19-24p19----------19-24p19----24----19-24p19----------19-|
|-------22----22----------22----22----------22----22----------22----22----|
|----------------------------21----------------------------------21-------|
|-------------------------------------------------------------------------|
|-------------------------------------------------------------------------|
|-------------------------------------------------------------------------|
|-------------------------------------------------------------------------|


Some sweeppicking out of some random song? in your attempt to be funny?...
#22
Quote by Sora 01
Some sweeppicking out of some random song? in your attempt to be funny?...


Exactly the reason I created this thread
#23
Quote by 11223344554433
e-----------------
B------------------
G------------------
D------------------
A-2------------1-2
E---2-2-3-4-2-----

Personally, I think it sounds better like this...hammering on in triplets on the 2 3 4 part.
Quote by GodofGuitar1991
you are a real guitarist when you are not ashamed about masturbating to musicians friend magazine.
#24
I like them. They're fun to play.

I reckon people might have them because this is a guitar site, full of guitarists.
"Why should we subsidise intellectual curiosity?"
-Ronald Reagan

"Knowledge is in every country the surest basis of public happiness."
-George Washington
#28
Quote by Ur all $h1t
I like them. They're fun to play.

I reckon people might have them because this is a guitar site, full of guitarists.


I know that. I'm just trying to say that if you're gonna put them in your sig you should put the name of the song in or something... You know, so we can know the tune of how it's being played? Not everyone knows every song XD
#29
inb4

|-------------------------------------------------------------|
|-------------------------------------------------------------|
|-------------------------------------------------------------|
|-----------3333-5555---------------------3333-4444-----------|
|------2222-----------4444-----------2222-----------3333------|
|-1111---------------------3333-1111---------------------2222-|
Quote by Deliriumbassist

My two pennies- theory. Learn it.
Skills. Get them.
Hair. Grow it to your ass.

Quote by Dempsey68
i can only keep it up for about 30 seconds before my fingers cramp up =[

Quote by Horsedick.MPEG
Sorry, but because you listen to Tool doesn't mean you're intelligent.
#30
Quote by fortysix&2


|-------------------------------------------------------------|
|-------------------------------------------------------------|
|-------------------------------------------------------------|
|-----------3333-5555---------------------3333-4444-----------|
|------2222-----------4444-----------2222-----------3333------|
|-1111---------------------3333-1111---------------------2222-|


Ehm.. What is that?
#31
Quote by FLUX_
Ehm.. What is that?


Looks like a chromatic scale.

Correct me if it's actually in a song?
#32
Quote by Demonology
Looks like a chromatic scale.

Correct me if it's actually in a song?

...you didn't expect I cum blood, did you?
Quote by Deliriumbassist

My two pennies- theory. Learn it.
Skills. Get them.
Hair. Grow it to your ass.

Quote by Dempsey68
i can only keep it up for about 30 seconds before my fingers cramp up =[

Quote by Horsedick.MPEG
Sorry, but because you listen to Tool doesn't mean you're intelligent.
#33
Quote by Demonology
Looks like a chromatic scale.

Correct me if it's actually in a song?


Six - All That Remainds?

Just A Theroy
#34
Quote by Demonology
I know that. I'm just trying to say that if you're gonna put them in your sig you should put the name of the song in or something... You know, so we can know the tune of how it's being played? Not everyone knows every song XD

LIES
Yes they do.
"Why should we subsidise intellectual curiosity?"
-Ronald Reagan

"Knowledge is in every country the surest basis of public happiness."
-George Washington
#35
Quote by Chips-
|-------0---------------------0--------------|
|---6---------------------6------------------|
|-----0---------------------0----------------|
|-8---------------------8--------------------|
|--------------------------------------------|
|--------------------------------------------|


win


hell yes.