#1
once again having trouble remembering what my teacher showed me and ive lost the piece of paper i wrote everything down on

Root 5 chords I need: Dmin7(b5),

Roto 6 chords I need: B7(b9)

ah thats all I need, if you can help, I would be so greatful!
#4
okay here..its just simple counting
Follow the chord's instructions.

Dmaj

--x-----------
--x------7---
--x------7---
--x------7---
--5----------
--------------

Dmin, min = b3rd , follow the instructions accordingly
--5-----------
--x----6-----
--x-------7--
--x-------7--
--5-----------
--x-----------

Dmin7.....play a b7 as instructed

--5--------------
-------6--------
--5-------------
-----------7----
--5--------------
--x--------------

Dmin7b5...follow the instruction and play the 5th flat

--x--------------
------6----------
--5-------------
------6--------
--5-------------
--x-------------


B7 this is a dominate chord , most likely used as the V . Play b7
Bmaj7 play natrual 7 most likely used as the I or IV chord.
Last edited by Ordinary at Jun 2, 2008,