#2
do you really need a tab?
Quote by JeanMi36
Back when I was a teen, I was making out with this girl, when I had the bright idea of putting my hand inside her panties.

She had her period.

I'm scarred for life
#4
wow
Quote by JeanMi36
Back when I was a teen, I was making out with this girl, when I had the bright idea of putting my hand inside her panties.

She had her period.

I'm scarred for life
#7
Quote by Sumlover41
wow

get ****ed four eyes... you are an asshole.
Quote by Gabel
You are EXTREMELY WRONG! I have played it. I own an 18W and it would be an awful stereo amp, it's way too bright, breaks up too easily and so on. Secondly, why would a guitar store sell an hifi amp.
#8
Another question...

0-3-5-0-3-6-5-0-3-5-3-0
You play that on all the strings.

That is the solo right? My friend said it is the intro.
#9
Sumlover *warned*

The intro is...

E----------------------------------------------------------
B----------------------------------------------------------
G------3------5-------------3-----6-----5-----------3----5-
D--5---3------5--------5----3-----6-----5------5----3----5-
A--5-------------------5-----------------------5-----------
E----------------------------------------------------------

E---------------
B---------------
G--3------------
D--3------5-----
A---------5-----
E---------------


(Taken from the intro tab with 121 votes)

I don't remember the rest of the song to confirm which is the best version but be sure to check the comments on the tabs as there will be some useful corrections if tabs are wrong.
Quote by Mia (Pulp Fiction)
Why do we feel it's necessary to yak about bullsh*t in order to be comfortable?

That's when you know you found somebody special. When you can just shut the f*ck up for a minute, and comfortably share silence.

RateYourMusic