Guitarist555
Registered User
Join date: Jun 2008
32 IQ
#1
ok, i was messing about on my guitar and i started playing this
i know this song, i think ive heard it off the tv, but i cant remember any lyrics or anything
the tab goes like this (fingerpicking on an acoustic i think):

-------------------------------------------------------------------------------------------------
---------3------------3---------------3----------------3------------------3-------------3----
-------------------------------------------------------------------------------------------------
-------------------------------------------------------------------------------------------------
--2------------2--------------2---------------2----------------2-----------------2------------
-------------------------------------------------------------------------------------------------


------------------------------------------------------------------------------------------------
------------------------------------------------------------------------------------------------
---------2------------2---------------4----------------4------------------4----------------4--
------------------------------------------------------------------------------------------------
------------------------------------------------------------------------------------------------
--2-------------2------------3-----------------3------------------3-----------------3--------


------------------------------------------------------------------------------------------------
------------------------------------------------------------------------------------------------
--------4--------------4---------------6--------------6---------------------------------------------
------------------------------------------------------------------------------------------------
------------------------------------------------------------------------------------------------
--3-----------3-----------------5--------------5---------------------------------------------------


repeat that a load of times
any help is greatly appreciated
Guitarist555
Registered User
Join date: Jun 2008
32 IQ
#3
i dont know
but its been annoying me all day!
at least someone else will be obsessing over it as well
hhaha
Guitarist555
Registered User
Join date: Jun 2008
32 IQ
#6
people seem to think its off a phone company advert?
interesting...