#1
Okay no i'm not going to ask what you think im going to ask. Basically, I'm making a composition where i go from C Major to F Major...i just need a good way of connecting the two so it sounds good instead of it going suddenly *BANG* new key.
This is kind of how it goes:
Capo on 4th fret...
(C)
e|-----------3---------|
B|--------3-----3-----|
G|----0-------------0-|
D|---------------------|
A|-0-------------------|
E|---------------------|etc

To

(F)
e|-----------1---------|
B|--------1-----1-----|
G|---------------------|
D|----3-------------3-|
A|-1-------------------|
E|---------------------|etc
Quote by Jackolas
edgespear, driving great ideas again. Sir, you pwn.

Gear:
Guitar: Epiphone Les Paul, PRS SE Floyd Custom 24 Floyd Amethyst
Amp: Peavey 6505, Eleven Rack
#2
Build up on a chord in both keys such as A or E.

(C)
e|-----------3---------| C
B|--------3-----3-----|
G|----0-------------0-|
D|---------------------|
A|-0-------------------|  
E|---------------------|                    

e|----------------------|  E
B|-----------0----------|
G|------1-------1------|
D|----2------------2---|
A|----------------------|
E|-0--------------------|

e|-----------1---------|  F
B|--------1-----1-----|
G|---------------------|
D|----3-------------3-|
A|-1-------------------|
E|---------------------|



ESP LTD MH-350NT
Hughes & Kettner Switchblade 100
Orange PPC412AD
Seagull S6 Cedar Slim
Manuel Rodríguez C1M


Guitarist of Ravenage
Drummer of Windrider
Solo Project is Aloeswood
Last edited by Guitar_Dan_666 at Jun 4, 2008,
#3
^ thats what i was thinking...I dont have my guitar on me, but maybe just a quick hammer on/pulloff from an A or B chord
'I love her, but I love to fish...I'm gonna miss her"
#4
Quote by nemjeff13
^ thats what i was thinking...I dont have my guitar on me, but maybe just a quick hammer on/pulloff from an A or B chord


Great minds think alike.


ESP LTD MH-350NT
Hughes & Kettner Switchblade 100
Orange PPC412AD
Seagull S6 Cedar Slim
Manuel Rodríguez C1M


Guitarist of Ravenage
Drummer of Windrider
Solo Project is Aloeswood
#5
Quote by Guitar_Dan_666
Build up on a chord in both keys such as A or E.

(C)
e|-----------3---------| C
B|--------3-----3-----|
G|----0-------------0-|
D|---------------------|
A|-0-------------------|
E|---------------------|

e|----------------------| E
B|-----------0----------|
G|------1-------1------|
D|----2------------2---|
A|----------------------|
E|-0--------------------|

e|-----------1---------| F
B|--------1-----1-----|
G|---------------------|
D|----3-------------3-|
A|-1-------------------|
E|---------------------|


Ah excellent thank you, i shall try that and see how it goes.
Quote by Jackolas
edgespear, driving great ideas again. Sir, you pwn.

Gear:
Guitar: Epiphone Les Paul, PRS SE Floyd Custom 24 Floyd Amethyst
Amp: Peavey 6505, Eleven Rack
#6
Quote by edgespear
Ah excellent thank you, i shall try that and see how it goes.


No probs.

You could try any chord from the Fmaj scale which is in the Cmaj scale.

G, A, D, and E.


ESP LTD MH-350NT
Hughes & Kettner Switchblade 100
Orange PPC412AD
Seagull S6 Cedar Slim
Manuel Rodríguez C1M


Guitarist of Ravenage
Drummer of Windrider
Solo Project is Aloeswood
#7
Okay i ended up doing this:
e|-----------3---------| C
B|--------3-----3-----|
G|----0-------------0-|
D|---------------------|
A|---------------------|
E|-3-------------------|

e|----------------1--(1)---| ?
B|-----0------1------------|
G|-------------------------|
D|-------------------------|
A|-0------3----------------|
E|-------------------------|

e|-----------1---------| F
B|--------1-----1-----|
G|---------------------|
D|----3-------------3-|
A|-1-------------------|
E|---------------------|
Is that ok?
Quote by Jackolas
edgespear, driving great ideas again. Sir, you pwn.

Gear:
Guitar: Epiphone Les Paul, PRS SE Floyd Custom 24 Floyd Amethyst
Amp: Peavey 6505, Eleven Rack
#8
Quote by Guitar_Dan_666
Build up on a chord in both keys such as A or E.

(C)
e|-----------3---------| C
B|--------3-----3-----|
G|----0-------------0-|
D|---------------------|
A|-0-------------------|
E|---------------------|

e|----------------------| E
B|-----------0----------|
G|------1-------1------|
D|----2------------2---|
A|----------------------|
E|-0--------------------|

e|-----------1---------| F
B|--------1-----1-----|
G|---------------------|
D|----3-------------3-|
A|-1-------------------|
E|---------------------|



E severely isn't in the key of F major, and there's a capo on the fourth fret, so that's not E!

God, those aren't C or F either...

I'm afraid I don't have time to sort this out atm, but that's all pretty messed up.

ED: I may be missing something spectacularly obvious...?
#9
Quote by edgespear
Okay i ended up doing this:


*tab*


Is that ok?



Yeah, as long as it sounds good to you, It's good.


EDIT: To above: Forgot about the capo, I was saying it as if there wasn't a capo lol.

E is in F, And I didn't check the chords It doesn't look like C but that is an F.

I've had a long day, give me a break .


ESP LTD MH-350NT
Hughes & Kettner Switchblade 100
Orange PPC412AD
Seagull S6 Cedar Slim
Manuel Rodríguez C1M


Guitarist of Ravenage
Drummer of Windrider
Solo Project is Aloeswood
Last edited by Guitar_Dan_666 at Jun 4, 2008,
#10
They are in the key of C and F! the only difference is Bb is in F and i've included a Bb later on so i had to change it to F...... and anyway ignore the Capo, it's all relative in the end. ill just work it out from without one.
That means E should be in the key of F ....
Quote by Jackolas
edgespear, driving great ideas again. Sir, you pwn.

Gear:
Guitar: Epiphone Les Paul, PRS SE Floyd Custom 24 Floyd Amethyst
Amp: Peavey 6505, Eleven Rack
#12
Quote by Freepower
E diminished is in the key of F, not E. The "E" you tabbed is an E major.



I knew it was E major I tabbed, forgot about what type of chord it needed to be. Like I said, long day.


ESP LTD MH-350NT
Hughes & Kettner Switchblade 100
Orange PPC412AD
Seagull S6 Cedar Slim
Manuel Rodríguez C1M


Guitarist of Ravenage
Drummer of Windrider
Solo Project is Aloeswood
Last edited by Guitar_Dan_666 at Jun 4, 2008,