#2
haha theres only vocals and drums btw why dont ya listen to some talented music
#3
Quote by gooooog
haha theres only vocals and drums btw why dont ya listen to some talented music


Tru Dat
#4
Keep your opinions to yourselves, guys, seriously. The guy just asked if someone would tab a song.
#6
Yeah I think the guitar is great in there. Someone please tab this. I was looking all over for a tab but I can't find it. AHHHHHHHHHHH!!!!!!!!!!!
#7
this is the intro (lead and bass guitars)... that's all I can tab, but it's a start..

e|---7-7-7----7-7---7-7-7---7-7----8---8---8------8--8-----7-7-7---7-7-------|
B|---8-8-8----8-7---8-8-8---8-7----8---8---8------8--8-----8-8-8---8-7-------|
G|---9-9-9----9-7---9-9-9---9-7----9---9---9------9--9-----9-9-9---9-7-------|
D|---9-9-9----9-7---9-9-9---9-7----10--10-10----1010----9-9-9---9-7-------|
A|---------------------------------------------------------------------------------------|
E|---------------------------------------------------------------------------------------|

G|---------------------------------------------------------------------------|
D|---------------------------------------------------------------------------|
A|------------------------------------------------3----3-2------------------|
E|--0--0--0---00--3---0---0---0---00---3-------------5---5-3--0-----|