#1
Hello there
The part I am talking about is the end of the bridge that comes before the solo.
Like, after all those Dsus's and stuff Page plays something that he doesn't play on the studio version, and this part is added exactly at where the solo starts in the studio version (so in the live it;s just before the solo).
There's one tab here on UG (the rest being Guitar pros of the same tab), and technically the chords for this part seem correct but the picking isn't- in the live version Page plays it more complex, with more notes, and I can't seem to figure it out. It should be easy, though, so I'll appreciate any help!

Here's the tab from UG:
Am            Am/G    F
  +E  E E E +E  E E E   S S S S E S S +S  S E S S E
|---------0-(0)-------|-----------------------------|
|-------1---------1---|---1-----3---1-(1)---3-1---1-|
|-------2-----------2-|-----2-------------2-----2---|
|-------2-------------|-------3---3-----------------|
|-(0)-0---------------|-----------------------------|
|---------------3-----|-1---------------------------|


  Am         G               Gmaj7/B
                                                  GtGtr IV
   E S S E E S S S S E E   S S  S S  S  E  S  +E  E E E
|--------------3---------|--------8----------------------|
|------------3---3---3---|---9-10---10----10-(10)--------|
|----5---5---------4---4-|-------------10-------------5--|
|-/7---7---7-------------|--------------------------7----|
|------------------------|-------------------------------|
|------------------------|-------------------------------|



Listen to the live "The son remains the Same" version, and you'll quickly know what I'm talking about.

Thanks very much!
ॐॐॐॐॐॐॐॐॐॐॐॐॐॐॐॐॐॐॐॐॐ
Quote by dannyisokay
It's our little online utopia where we smoke with folks from the far corners of the world and say things like "I'm high, heheehehe."

Quote by Ed Hunter

Thoughts about new naked airport scanner?

^
Quote by nightraven
brb applying for job at airport

#2
Do you mean "The Song that Remains the Same?"
Quote by Ichimaru
I've always wanted to meet a really hot readhead so that I could tell her name is Moses and I'm here to see the burning bush.
#3
Quote by Ibanez2427
Do you mean "The Song that Remains the Same?"

No he actually means the son remains the same, don't you know that album?

On a less sarcistic note, I think you just need to let everything ring out...
Yamaha RGX 520FZ
Squier Affinitys Strat (customized!)
Johnson 620 Player Acoustic

Boss HM3 hyper metal
Boss CH1 super chorus
Zoom G1X

Peavey Valveking Royal 8
New: Peavey JSX Mini Collosal