#1
I believe I figured out the main riff in this song and now there's the chorus part I'm looking for. The part where Angry Anderson starts singing: call me the black eyeeed..
#2
i think its


e|--------------------------------------
B|--------------------------------------
G|--------------------------------------
D|--3---------5------------------------
A|--3-(x16)--5--(x16)---------------
E|--1----------3-----------------------

then back to the main riff which is:


e|-----------------------------------------
B|-----------------------------------------
G|-----------5----------------------------
D|--7-7-7--5--7-------------------------
A|--7-7-7--3--7-------------------------
E|--5-5-5-----5--------------------------

i think thats what your looking for anyway
#3
Thanks!
Actually I figured the main riff out like this:

e|-----------------------------------------
B|-----------------------------------------
G|---------------------------------------
D|--7-7-7-5 -7-------------------------
A|--x-x-x--x--x-------------------------
E|--5-5-5-3--5--------------------------
#4
Quote by 08L1V10N
Thanks!
Actually I figured the main riff out like this:

e|-----------------------------------------
B|-----------------------------------------
G|---------------------------------------
D|--7-7-7-5 -7-------------------------
A|--x-x-x--x--x-------------------------
E|--5-5-5-3--5--------------------------


yeah, thats sounds right to i guess. But in my opinion the guitar plays my bit and the bass plays something similar to yours. But like I say yours sounds perfectly alright