#1
I wanted to learn the song The Promise but I couldn't find the tab for it on here and I'm too lazy to learn it by ear. If anybody knows how to play that song would you please tab it for me?
#3
intro:

e|--------1--0-----0--------------1--0------0-----------------1--0-----------------1--0-------0-------3|
B|--1h3--------3----------1h3----------3------1------1h3---------3-------1h3----------3-------1----|
G|------------------------------------------------------------------------------------------------------------|
D|--------------------------------------------------------------------------3--------------------------------|
A|------------------------------------------------------------------------------------------------------------|
E|------------------------------------------------------------------------------------------------------------|

intro: C Am F C

verse: C Am F C (2)

chorus: C Am F C Am G C

Solo:
e|------------------------------------------------------------------0--------------------|
B|----1--0--1-------3--1--0---1------------1--1--0------1----------3----1---1----|
G|-0-----------0-------------------0------0--------------------------------------------|
D|---------------------------------------------------------------------------------------|
A|---------------------------------------------------------------------------------------|
E|---------------------------------------------------------------------------------------|

e|--------0---3---0-------------------------0--3---0----------------------|
B|-----1--------------3--1--------------1--------------3---1--------------|
G|--0------------------------2-------0-------------------------2-----------|
D|---------------------------------------------------------------------------|
A|---------------------------------------------------------------------------|
E|---------------------------------------------------------------------------|

solo: C Am F C Am F

last chorus: C Am F C Am G C Am F C Am G Am F C
Last edited by crmrz at Jun 16, 2008,