#1
Hey Guys. we all pick up a guitar when we have moments of inspiration and we just make up little songs.
some are good and some are missing something that gives it that little bit extra.

if u have any songs or riffs that you want help on or borrow from eachother, post them here.

im working from memory so it might not be right,
this is one i made up:

INTRO:
|----------------------------------------------
|--------3------3--------3--------3-------3---
|------0------0--------0--------0-------0-----
|----0------0--------------------------0------
|-------------------2---------2---------------
|-0-------0-------0---------0-------0--------

Em C G D
Em C G D


when i play D i play it as:

|--2----3----2----
|--3----0----3----
|--2----2----2----
|-------------------
|-------------------
|-------------------

well its on youtube if u wanna learn how to play it. SEZrules/Megans song

i have better ones but this has taken me 15 minutes and i really cant be arsed.
so if u want help with improving it post it. thnaks.