#1
I'm looking for the main guitar parts to 'Burn My Shadow' by UNKLE off their album War Stories. Any help is greatly appreciated.
#2
I tabbed this the other day.
ill try tab it out.
The will be heartache,
there will be rain,
and joy I can't explain.
#3

e----------------------------------------------------------------
B----------------------------------------------------------------
G--(5)-(5)------(5)-(5)------(5)-(5)------(5)-(5)-----(5)-(5)----
D---7---7--------7---7--------7---7--------7---7-------7---7-----
A---7---7--------7---7--------7---7--------7---7-------7---7-----
E---5---5--------5---5--------5---5--------5---5-------5---5-----

e----------------------------------------------------------------------------
B----------------------------------------------------------------------------
G--(5)-(5)-(5)-----------(5)-(5)---------(5)-(5)------(5)-(5)-----(5)-(5)----
D---7---7---7-------------7---7-----------7---7--------7---7-------7---7-----
A---7---7---7-------------7---7-----------7---7--------7---7-------7---7-----
E---5---5---5-------------5---5-----------5---5--------5---5-------5---5-----


You can pick up the strumming pattern quite easily.


e----------------------------------------------------------------------------
B----------------------------------------------------------------------------
G-------2---2------2---2--------------------------------------------------
D--0----3---3------3---3---------------------------------------------------
A--0----3---3------3---3---------------------------------------------------
E--0----1---1------1---1---------------------------------------------------


Do this in the same strumming pattern.
The will be heartache,
there will be rain,
and joy I can't explain.