#1
I need to learn more guitar licks and i need help. Would like some licks that tony iommi and jimi hendrix's used can any one help me. Please tab it for me.
#2
uhm just learn stuff?
power chords
pentatonic scales?
O
learn that Emin#7 or whatever...the hendrix chord? you guys know what im talking aobut i think thats the name, it might not be i forgot...
Quote by Jack Off Jill
Better than hooked on crack, I suppose. I'd rather know my kids are safe at home beating their meat than out in the world robbing old women for their crack fix.

Quote by *sigh*
What a huge coincidence. I have a butthole also.
#3
^^ that's what I do. Believe me, it's way better than tab and more fun.
#4
please tab it for me? well if you want hendrix and iommi then pick a song and use the search bar on the homepage. dont tell us what to do


heres a litte riff you might enjoy...sounds like just something your asking for
e--------------------------------------------------------
B--------------------------------------------------------
G-------------------------------------------------------
D------0-0-2------0-0-2--------0-0-2------2-2-0--
A-3-3-----------------------0-0-----------------------
E--------------3-3-----------------------1-1----------
Quote by H4T3BR33D3R
Get a boner and slap your school doctor in the face with your penis.

It'll be funny.


Haiku by of friend of mine:
Fat guy play the bass
Get your jam on, get your jam
And peanut butter


Live Fast, Die Fun
#5
Quote by burgurhead1812
please tab it for me? well if you want hendrix and iommi then pick a song and use the search bar on the homepage. dont tell us what to do


heres a litte riff you might enjoy...sounds like just something your asking for
e--------------------------------------------------------
B--------------------------------------------------------
G-------------------------------------------------------
D------0-0-2------0-0-2--------0-0-2------2-2-0--
A-3-3-----------------------0-0-----------------------
E--------------3-3-----------------------1-1----------

Blink 182 - Dammit. Nice.

Although, it is easy and fun to play loud.
Last edited by TheProducer at Jun 16, 2008,