#1
This is going to be the first song my band and I play, and I'm not quite that good at playing by ear....so any help would be greatly appreciated.
#2
Hopefully this will be a decent starting point, since the song is relatively simple and fairly repetitive. Good luck mate

G|---------------------------------------------------------------|
D|---------------------------------------------------------------|
A|---------------------------------------------------0-0---0---5-|
D|---2------2--------2-2-----2------5-------5--------------------|

G|---------------------------------------------------------------|
D|---------------------------------------------------------------|
A|---------------------------------------------------------------|
D|---2------2--------2-2-----2------5-------5--------0-0----0----|

Verse 1

G|---------------------------------------------------------------|
D|---------------------------------------------------------------|
A|---------------------------------------------------------------|
D|-----2---2--------2---2---2------2---2---2-------2---2---2-----|

G|---------------------------------------------------------------|
D|---------------------------------------------------------------|
A|---------------------------------------------------------------|
D|-2---0---0--------0---0---0------0---0---0--------0---0---0----|

G|---------------------------------------------------------------|
D|---------------------------------------------------------------|
A|---------------------------------------------------------------|
D|-0---2---2--------2---2---2------2---2---2-------2---2---2-----|

G|---------------------------------------------------------------|
D|---------------------------------------------------------------|
A|---------------------------------------------------------------|
D|-2---0---0--------0---0---0------0---0---0--------0---0---0----|

And thats all for tonight! hopefully I'l finish it tommorrow when it's not 3 in the morning (BTW the verse above is incomplete)
#4
Sorry, I don't feel like figuring out rhythm notation so your on your own for that, but I'm now pretty sure the tab is 100% correct.
Intro
G|---------------------------------------------------------------|
D|---------------------------------------------------------------|
A|---------------------------------------------------0-0---0---2-|
D|---2------2--------2-2-----2------5-------5--------------------|

I screwed up right here last night, that 5 on the A string is actually a 2

G|---------------------------------------------------------------|
D|---------------------------------------------------------------|
A|---------------------------------------------------------------|
D|---2------2--------2-2-----2------5-------5--------0-0----0----|

Verse

G|---------------------------------------------------------------|
D|---------------------------------------------------------------|
A|---------------------------------------------------------------|
D|-----2---2--------2---2---2------2---2---2-------2---2---2-----|

G|---------------------------------------------------------------|
D|---------------------------------------------------------------|
A|---------------------------------------------------------------|
D|-2---0---0--------0---0---0------0---0---0--------0---0---0----|

G|---------------------------------------------------------------|
D|---------------------------------------------------------------|
A|---------------------------------------------------------------|
D|-0---2---2--------2---2---2------2---2---2-------2---2---2-----|

G|---------------------------------------------------------------|
D|---------------------------------------------------------------|
A|---------------------------------------------------------------|
D|-2---0---0--------0---0---0------0---0---0--------0---0---0----|


G|---------------------------------------------------------------|
D|---------------------------------------------------------------|
A|-----3---3--------3---3---3------3---3---3--------3---3---3----|
D|-0-------------------------------------------------------------|


G|--------------------------------------------------------------------|
D|--------------------------------------------------------------------|
A|-3---5---5--------5---5---5------5---5---5--------5---5---5--5-5-5--|
D|--------------------------------------------------------------------|


G|---------------------------------------------------------------|
D|---------------------------------------------------------------|
A|-----3---3--------3---3---3------3---3---3--------3---3---3----|
D|---------------------------------------------------------------|


G|--------------------------------------------------------------------|
D|--------------------------------------------------------------------|
A|-3---5---5--------5---5---5------5---5---5--------5---5---5--5-5-5--|
D|--------------------------------------------------------------------|

Prechorus (same as intro)
G|---------------------------------------------------------------|
D|---------------------------------------------------------------|
A|---------------------------------------------------0-0---0---2-|
D|---2------2--------2-2-----2------5-------5--------------------|


G|---------------------------------------------------------------|
D|---------------------------------------------------------------|
A|---------------------------------------------------------------|
D|---2------2--------2-2-----2------5-------5--------0-0----0----|

Chorus

G|-----------------------------------------------------|
D|-----------------------------------------------------|
A|----------2-----------------0------------------5-----|
D|---2------------5-5---0-----------2-----5-5----------|


G|-----------------------------------------------------|
D|-----------------------------------------------------|
A|----------2-----------------3-----------2-2----0-----|
D|---2------------5-5---0-----------5------------------|

G|-----------------------------------------------------|
D|-----------------------------------------------------|
A|----------2-----------------0------------------5-----|
D|---2------------5-5---0-----------2-----5-5----------|

Bridge to verse

G|---------------------------------------------------------------|
D|---------------------------------------------------------------|
A|---------------------------------------------------------------|
D|---2------2--------2-2-----2------2--2----2-------2-2-----2----|

Rest of the song goes:

verse

prechorus

extended chorus

G|-----------------------------------------------------|
D|-----------------------------------------------------|
A|----------2-----------------0------------------5-----|
D|---2------------5-5---0-----------2-----5-5----------|


G|-----------------------------------------------------|
D|-----------------------------------------------------|
A|----------2-----------------3-----------2-2----0-----|
D|---2------------5-5---0-----------5------------------|

G|-----------------------------------------------------|
D|-----------------------------------------------------|
A|----------2-----------------0------------------5-----|
D|---2------------5-5---0-----------2-----5-5----------|

G|-----------------------------------------------------|
D|-----------------------------------------------------|
A|----------2-----------------3-----------2-2----0-----|
D|---2------------5-5---0-----------5------------------|


prechorus (solo)

extended chorus

outro (same as bridge to verse)
Last edited by Jeff123 at Jun 19, 2008,