#1
anybody have the chords or tab for "charmed life" by leigh nash (from the movie "uptown girls" i've looked on ultimate guitar but nothing came up. much appreciated <3
#2
Not the whole arpeggio of the first verse, but you've got the chords........

intro:
e|---------2--------------2------------------|
B|---4------------5--------------------------|
G|-----4------4------4-------4--------------| 4x
D|--------------------------------------------|
A|--------------------------------------------|
E|--------------------------------------------|

verse: B E B F# E B F# B E

B E B F# Dbm Abm

little riff before 2nd verse:
e|-----------------------------------------|
B|-----------------------------------------|
G|----------------------------------------|
D|---6/7---6--4---2---------------------|
A|----------------------4---2-------------|
E|------------------------------------------|

Chords betwwen verses: B E B F# E B F# B

chorus: A E B F# B

A E Dbm A